>
 >
Cassius

Cassius Guitar Tabs

Foals - Cassius chords, tabs, tablatures, lyrics

Guitar lessons | Add/correct | Request | Top 50 tabs Artists:  A B C D E F G H I J K L M N O P Q R S T U V W X Y Z 0-9

Cassius Guitar Tabs – Foals

CD, Sheet music, Poster

Do you like Cassius? Share with your friends now
Bass TabsChordsTabsTabs v2Ukulele
Foals - Cassius
Album - Antidotes

You can work out timings for yourself, its not that hard.

Guitar 1
Verse
e|-14/1515---12----14/1515---12---14/1515---12----14/1515-|
B|--------------15-----------------------------15---------|
G|--------------------------------------------------------|
D|--------------------------------------------------------|
A|--------------------------------------------------------|
E|--------------------------------------------------------|

e|12--14/1515---12----14/1515---12---14/1515---12----------------|
B|-----------------15-----------------------------15-15-13-13-12-|
G|---------------------------------------------------------------|
D|---------------------------------------------------------------|
A|---------------------------------------------------------------|
E|---------------------------------------------------------------|

Chorus
e|17-15-12--17-15-12----12----12-------19-15--------------|
B|-------------------15----------15-13--------------------|
G|--------------------------------------------------------|
D|--------------------------------------------------------|
A|--------------------------------------------------------|
E|--------------------------------------------------------|


e|17-15-12-17-15-12----12---12----------------------------|
B|------------------15----------15 13---------------------|
G|--------------------------------------------------------|
D|--------------------------------------------------------|
A|--------------------------------------------------------|
E|--------------------------------------------------------|

Bridge Pt1
e|--------------------------------------------------------|
B|--------------------------------------------------------|
G|--------------------------------------------------------|
D|xxxxxxxx-7-xxxxxxxxx-7x7--------------------------------|
A|xxxxxxxx-7-xxxxxxxxx-7x7--------------------------------|
E|xxxxxxxx-5-xxxxxxxxx-5x5--------------------------------|

Bridge Pt 2 palm mute
e|17-171717-19-17-15---17-171717-19-17-15-----------------|
B|----------------------------------------17--------------|
G|--------------------------------------------------------|
D|--------------------------------------------------------|
A|--------------------------------------------------------|
E|--------------------------------------------------------|

e|-17-15--------------------------------------------------|
B|-------17-----------------------------------------------|
G|--------------------------------------------------------|
D|--------------------------------------------------------|
A|--------------------------------------------------------|
E|--------------------------------------------------------|

Verse
Chorus

Bridge pt 1 (followed by bends on 5 on low E + delay)
Bridge pt 2
Bridge pt 2 non palm mute

Solo   d= tremelo with delay
e|-12d-------19-15--|
B|-----15-13--------|
G|------------------|
D|------------------|
A|------------------|
E|------------------|

e|-17~--------------|
B|------------------|
G|------------------|
D|------------------|
A|------------------|
E|------------------|

Chorus

Thats about it for that guitar.

Guitar 2
Verse
e|-------------------------------------------------------|
B|-------131313-------131313-------131313-------131312---|
G|-14-14--------14-14--------14-14-----------------------|
D|----------------------------------------14-14----------|    14 14
A|-------------------------------------------------------|
E|-------------------------------------------------------|

Chorus
e|-17/19-15----------------------17/19-15----------------------17/19-15---------------------|
B|------------17-17-17-17-15-15-----------------------------------------17-17-17-17-15-15---|
G|------------------------------------------------------------------------------------------|
D|------------------------------------------------------------------------------------------|
A|------------------------------------------------------------------------------------------|
E|------------------------------------------------------------------------------------------|

Bridge Pt1
e|-------------------------------------------------------|
B|-------------------------------------------------------|
G|-------------------------------------------------------|
D|xxxxxxxx-7-xxxxxxxxx-7x7-------------------------------|
A|xxxxxxxx-7-xxxxxxxxx-7x7-------------------------------|
E|xxxxxxxx-5-xxxxxxxxx-5x5-------------------------------|

Bridge Pt 2 palm mute
e|-------------------------------------------------------|
B|-------13--------12  ----------------------------------|
G|----14--------14---------------------------------------|
D|-14--------14------------------------------------------|
A|-------------------------------------------------------|
E|-------------------------------------------------------|

verse
chorus

Bridge pt 1 (followed by bends on 5 on low E + delay)
Bridge pt 2
Solo   d= tremelo with delay (unsure?)
e|-------------------------------------------------------|
B|-13d---------------------------------------------------|
G|-------------------------------------------------------|
D|-------------------------------------------------------|
A|-------------------------------------------------------|
E|-------------------------------------------------------|


Chorus

and thats it for that one.





Comments


Popular Foals tabs & chords
Inhaler 2 Bass Tabs
The French Open Bass Tabs
Total Life Forever 2 Bass Tabs
This Orient Chords
Balloons Tabs
Hummer Tabs
Inhaler Intro 1 Tabs
Late Night Tabs
The French Open Tabs
Tron Tabs


Song lyrics



↑ Back to top | Tablatures and chords are parodies/interpretations of the original songs. You may use it for private study, scholarship, research or language learning purposes only
© 2014 AZChords.com Contact us | Privacy policy | DMCA | Add/correct tabs | Request tabs | Top 50 tabs