» » »

Foals, Big Big Love Tabs (ver.3)

Artists:  A B C D E F G H I J K L M N O P Q R S T U V W X Y Z # 

Big Big Love Tabs (ver.3)

Foals Tabs
Rating:
4/5 (1 vote)
Big Big Love lessons Tabs too difficult? Try these video lessons and learn fast
                Intro:  pretty accurate ( I think )

|---------------------------------------------------9---------------|
|--10---10-10--7---10---10-10-----10---10-10--9--10---10-7----------|
|------------------------------9------------------------------------|
|-------------------------------------------------------------------|
|-------------------------------------------------------------------|
|-------------------------------------------------------------------|

|---------------------------------------------------9---------------|
|--10---10-10-----10---10-10--9---10---10-10---9-10---10-7----------|
|--------------9----------------------------------------------------| x2
|-------------------------------------------------------------------|
|-------------------------------------------------------------------|
|-------------------------------------------------------------------|

|---------------------------------------------------9---------------|
|--10---10-10-----10---10-10--9---10---10-10---9-10-----------------|
|--------------9----------------------------------------------------|
|-------------------------------------------------------------------|
|-------------------------------------------------------------------|
|-------------------------------------------------------------------|

Verse: just to get you started, needs some work

|-------------------------------------------------------------------|
|-------------------------------------------------------------------|
|-11------9------6----4----2----------------------------------------|
|-0-------0------0----0----0----------------------------------------|
|-------------------------------------------------------------------|
|-------------------------------------------------------------------|

Chorus

|-------------------------------------------------------------------|
|-------------------------------------------------------------------|
|--7--7--7--7--7--7--7--7--7--7--7--7--4--4--4--4--4-4-4-4----------|
|-------------------------------------------------------------------|
|--5--5--5--5--5--7--4--4--4--4--4--7--2--2--2--2--2-0--------------|
|------------------------------------------------------2-0----------|

Outro

|-------------99--77------------------------------------------------|
|-7-7-7-7-7-7---------10---7-7-7-7-9-9------------------------------|
|-7-7-7-7-7-7--------------7-7-7-7-9-9------66--9-------------------|
|---------------------------------------99--------------------------|
|-------------------------------------------------------------------|
|-------------------------------------------------------------------|
            
Submit corrections

comments powered by Disqus
↑ Back to top | Foals Tabs for Big Big Love. Lyrics for acoustic guitar and electric guitar. Tablatures and chords are parodies/interpretations of the original songs. You may use it for private study, scholarship, research or language learning purposes only