>
 >
Big Big Love

Big Big Love Guitar Tabs

Foals - Big Big Love chords, tabs, tablatures, lyrics

Guitar lessons | Add/correct | Request | Top 50 tabs Artists:  A B C D E F G H I J K L M N O P Q R S T U V W X Y Z 0-9

Big Big Love Guitar Tabs – Foals

CD, Sheet music, Poster

Do you like Big Big Love? Share with your friends now
Bass TabsTabsTabs v2
I tabbed this from the Mathletics B-Side version. Though some parts are the same
in the new album version.

INTRO
e|-------------------------------9------------------------------------9------|
B|-10--10-7-10--10---10--10-9-10---10-7-10--10---10--10-9-10--10-7-10---10-7-|
G|-----------------9---------------------------9-----------------------------|
D|---------------------------------------------------------------------------|
A|---------------------------------------------------------------------------|
E|---------------------------------------------------------------------------|

e|-----------------------------|
B|----12----12----12----15-12--|
G|-14----14----14----14--------|
D|-----------------------------|
A|-----------------------------|
|E|-----------------------------|

VERSE
e|----------------------------------------------------------------------------|
B|----------------------------------------------------------------------------|
G|----------------------------------------------------------------------------|
D|-16-16-16-16-16-16-16-16-14-14-14-14-14-------------14-14-14-14-------------|  
A|----------------------------------------16-16-14-12-------------16-16-14-12-|
E|----------------------------------------------------------------------------|
Listen for how long and many to play.

Keyboard @ 0:44
e|-----------------------------------------------------------------------------------|
B|----12-----------12-----------12--------------------12-----------12----------------|
G|-14----14-11--14----14-11--14----14-11--11-9-----14----14-11--14----14-11--11-9----|
D|---------------------------------------------11---------------------------------11-|
A|-----------------------------------------------------------------------------------|
E|-----------------------------------------------------------------------------------|

e|-------------------------------------|
B|----12-----------12-----------9------|
G|-14----14-11--14----14-11--11---9----|
D|----------------------------------11-|
A|-------------------------------------|
E|-------------------------------------|

CHORUS
e|-------------------------------------------------------------------------------------|
B|-------------------------------------------------------------------------------------|
G|-------------------------------------------------------------------------------------|
D|-16-16-16-16-16-18----------------14-------------------------------------------------|
A|-------------------16-16-16-16-16----14-14-14-14-14-12----12-14-14-14-14-14-12----12-|
E|-------------------------------------------------------14----------------------14----|

OUTRO
e|-----------------------------------------------------------------------------|
B|-------------------------14-14-12-12-----------------------------------------|
G|-11--11-11--11-11--11-11-------------14--11--11-11--11-11--13-13-----------9-|
D|-----------------------------------------------------------------9-9-11-11---|
A|-----------------------------------------------------------------------------|
E|-----------------------------------------------------------------------------| 





Comments


Popular Foals tabs & chords
After Glow Bass Tabs
Alabaster Bass Tabs
Electric Bloom Bass Tabs
Late Night Bass Tabs
This Orient Bass Tabs
Bad Habit Chords
Inhaler Intro 1 Tabs
Prelude Intro Tabs
Electric Bloom Ukulele
Spanish Sahara Ukulele


Song lyrics



↑ Back to top | Tablatures and chords are parodies/interpretations of the original songs. You may use it for private study, scholarship, research or language learning purposes only
© 2014 AZChords.com Contact us | Privacy policy | DMCA | Add/correct tabs | Request tabs | Top 50 tabs