» » »

Foals, Balloons Tabs (ver.2)

Artists:  A B C D E F G H I J K L M N O P Q R S T U V W X Y Z # 

Balloons Tabs (ver.2)

Foals Tabs
Rating:
2/5 (1 vote)
Balloons lessons Tabs too difficult? Try these video lessons and learn fast
                (Intro)
-------------------------------------------------------------------------------
                             Foals - Balloons
-------------------------------------------------------------------------------
Tuning: regular

These are just some random bits I've figured out.

Guitar 1:intro
e|-------------------------------------------------------------------------------|
B|-------------------------------------------------------------------------------|
G|-------------------------------------------------------------------------------|
D|-----12+-----repeat------------------------------------------------------------|
A|-12+---------------------------------------------------------------------------|
E|-------------------------------------------------------------------------------|

         verse
e|-----------------------------------------------------------------------------------|
B|-----------------------------------------------------------------15.----15.--------|
G|-----------------------12-14-12-14-x-14.-----------------------12.----14.----x-14.-|
D|-------------10-12--12-------------------------------10-12-12----------------------|
A|-0-h-12-h-15-----------------------------0-h-12-h-15-------------------------------|
E|-----------------------------------------------------------------------------------|


guitar 2: verse

e|-13-13-12-12-15-17-15-17-17.-17.--repeat--|
B|------------------------------------------|
G|------------------------------------------|
D|------------------------------------------|
A|------------------------------------------|
E|------------------------------------------|

   chorus

e|--17-17-15-15-12-12-------17.-17.---repeat--|
B|--------------------15-15-------------------|
G|--------------------------------------------|
D|--------------------------------------------|
A|--------------------------------------------|
E|--------------------------------------------|


bass: intro

e|--------------------------|
B|--------------------------|
G|--------------------------|
D|--------------------------|
A|--------------------------|
E|--13-13-12-12\-8-8-10-10--|


| . staccato
| /  slide up
| \  slide down
| h  hammer-on
| p  pull-off
| ~  vibrato
| +  harmonic
| x  Mute note
===============================================================================
            

comments powered by Disqus
↑ Back to top | Foals Tabs for Balloons. Lyrics for acoustic guitar and electric guitar. Tablatures and chords are parodies/interpretations of the original songs. You may use it for private study, scholarship, research or language learning purposes only