» » »

Alabaster Bass tabs (ver.1)

Artists:  A B C D E F G H I J K L M N O P Q R S T U V W X Y Z # 

Alabaster Bass tabs (ver.1)

Foals
Rating:
0/5 (0 votes)

Hard to play? Try these video lessons and learn fast.
                Intro - No Bass
Verse: I think its not a bass but you can play this
G|-------------------|
D|-------------------| 12x
A|--0-0-0-0-0-0-0-0--| 
E|-------------------|

Chorus

G|------------------------------|
D|*-3---0-3-5---0-5-7---7-5-0---|
A|*-----------------------------|
E|------------------------------|

G|------------------------------|
D|-3---0-3-5---0-5-7---7-5-----*| 2x
A|-------------------------5-7-*|
E|------------------------------|

G|------------------------------|
D|-3-------5-------7---7-5-0----| 2x
A|------------------------------|
E|------------------------------|

Verse

G|-----------------|
D|-----------------| 5x
A|-0-0-0-0-0-0-0-0-|
E|-----------------|

G|-----------------|
D|-----------------|
A|-0-0-0-0-0-0-5-7-|
E|-----------------|

G|--------------------------------------|
D|--------------------------------------|
A|-0----3----5----7-5----3----5----0----|
E|--------------------------------------|

G|---------------------------------------------------|
D|---------------------------------------------------|
A|-5-7----0----3----5----5-7----0----3----5----(5-7)-|
E|---------------------------------------------------|

then play the Chorus one time

End with
G|------------------------------|
D|-3-------5-------7---7-5-0----| 
A|------------------------------|
E|------------------------------|

G|------------------------|
D|-3-------5-------7------| 2x
A|------------------------|
E|------------------------|

G|-----------------------------------|
D|-----------------------------------| 
A|--5-7----0----3----5---------------|
E|-----------------------------------|

Have fun!
Viel Spass!
            
Hard to play? Try these video lessons and learn fast. | Correct




comments powered by Disqus
↑ Back to top | Tablatures and chords are parodies/interpretations of the original songs. You may use it for private study, scholarship, research or language learning purposes only