>
 >
2 Trees

2 Trees Guitar Tabs

Foals - 2 Trees chords, tabs, tablatures, lyrics

Guitar lessons | Add/correct | Request | Top 50 tabs Artists:  A B C D E F G H I J K L M N O P Q R S T U V W X Y Z 0-9

2 Trees Guitar Tabs – Foals

CD, Sheet music, Poster

Do you like 2 Trees? Share with your friends now
Tabs
-------------------------------------------------------------------------------
-------------------------------------------------------------------------------

Tuning: Standard
Intro:
Guitar 1:
e|---------------------------------------------------------------------------|
B|---------------------------------------------------------------------------|
G|---------------------------------------------------------------------------|
D|--------141414------141414------141414------141414------141414-------------|
A|---------------------------------------------------------------------------|
E|--121212------121212------121212------121212------121212-------------------|

Guitar 2: I think its actually the bass that does this part but you can play it on the 
just the same.
and this repeated through the verse.
e|---------------------------------------------------------------------------|
B|---------------------------------------------------------------------------|
G|---------------------------------------------------------------------------|
D|---4---4--4---4---4---4---4---4--4---4---4---4--4---4---4--4---4-----------| (repeat)
A|---------------------------------------------------------------------------|
E|-3---3---3--3---3---3---3---3---3--5---5---5--5---5---5---5--5---5---------|

Guitar 1:
e|---------------------------------------------------------------------------|
B|---------------------------------------------------------------------------|
G|------0h14--------0h14--------0h14----0h16-0h14----------------------------|
D|--0h17----0h17(x3)----0h17(x2)----0h17---------0h16-0h14(x5)-0h11(x2)------|
A|---------------------------------------------------------------------------|
E|---------------------------------------------------------------------------|

Verse: Play through i think 3 times all the way through.
e|---------------------------------------------------------------------------|
B|---------------------------------------------------------------------------|
G|---------------------------------------------------------------------------|
D|--12-14-12-12-14-12-12-12-14-14-14-11-14-11-11-14-11-11-11-14-14-14--------|
A|---------------------------------------------------------------------------|
E|---------------------------------------------------------------------------|

e|---------------------------------------------------------------------------|
B|---------------------------------------------------------------------------|
G|---------------------------------------------------------------------------|
D|---14-----14--------14-14-14-11-14-11-11-14-11-11-11-14-14-14--------------|
A|-14--14-14--14-14-14-------------------------------------------------------|
E|---------------------------------------------------------------------------|

Chorus:This bit is a bit messy to tab but easy enough when you work it out.
Play through a couple of times.
e|---------------------------------------------------------------------------|
B|---------------------------------------------------------------------------|
G|-12(x6)11(x4)-9s11s9s7(x6)4(x5)----12(x5)-14-11(x4)9s11s9s7(x6)4(x5)-------|
D|---------------------------------------------------------------------------|
A|---------------------------------------------------------------------------|
E|---------------------------------------------------------------------------|

After the chorus is played once through, this gets played by seperate guitar for the 
aswell:
e|---------------------------------------------------------------------------|
B|-14-14-14-14-14-10-10-10-12-10-12-10-12-12-12-12-12-15-15-15-15-15---------|
G|---------------------------------------------------------------------------|
D|---------------------------------------------------------------------------|
A|---------------------------------------------------------------------------|
E|---------------------------------------------------------------------------|

Second Verse:
The First part verse is played for some of the verse and the other guitar plays this 
tremelo pick if thats the right expression:
e|--17-19--------------------------------------------------------------------|
B|--------17----20-19--------------------------------------------------------|
G|--------------------16-18--------------------------------------------------|
D|-------------------------19------------------------------------------------|
A|---------------------------------------------------------------------------|
E|---------------------------------------------------------------------------|

Chorus is then repeated,
There is then a nice instrumental part for rest of the song and it seems to go something 
this for most of it I think:
e|---------------------------------------------------------------------------|
B|---------------------------------------------------------------------------|
G|---0h14~--0h14~--0h18b--0h16~----------------------------------------------|
D|---------------------------------------------------------------------------|
A|---------------------------------------------------------------------------|
E|---------------------------------------------------------------------------|
They just varie this out for the rest of the song with some big notes from the keyboard 
other guitars.

And Treat! thats it I think roughly.
Bit of squeeze to fit everything in but Incredible Song!
Tell me if you think theres other stuff ive missed.
big love x

************************************

| s   slide
| h   hammer-on
| p   pull-off
| ~   vibrato
| +   harmonic
| x   Mute note
| b   Bend

************************************





Comments


Popular Foals tabs & chords
Electric Bloom 2 Bass Tabs
Tron Bass Tabs
Bad Habit Chords
This Orient Chords
Balloons 2 Tabs
Black Gold Tabs
Cassius 1 Tabs
Heavy Water Tabs
Hummer 1 Tabs
Total Life Forever Tabs


Song lyrics



↑ Back to top | Tablatures and chords are parodies/interpretations of the original songs. You may use it for private study, scholarship, research or language learning purposes only
© 2014 AZChords.com Contact us | Privacy policy | DMCA | Add/correct tabs | Request tabs | Top 50 tabs