» » »

Fm Static, Moment Of Truth Tabs (ver.1)

Artists:  A B C D E F G H I J K L M N O P Q R S T U V W X Y Z # 

Moment Of Truth Tabs (ver.1)

Fm Static Tabs
Rating:
4/5 (8 votes)
Moment Of Truth lessons Tabs too difficult? Try these video lessons and learn fast
                standard tuning . im still getting use to tabbing so bare with me
intro guitar 1  these are the chords the rythm isnt hard you can get it
e-------------------------------------------------------|
b-------------------------------------------------------|
g--6--666-----------------------------------------------|
d--6--666-8-8-8-4-444-6-6-6-----------------------------|
a--4--444-8-8-8-4-444-6-6-6-----------------------------|
e---------6-6-6-2-222-4-4-4-----------------------------|

guitar 2
e-------------------------------------------------------|
b---6/4-----------4-4----6/4----------------------------|
g-6-----6-5-6---6------6-----6-5-6---6-5----------------|
d----------------------------------6-----6--------------|
a-------------------------------------------------------|
e-------------------------------------------------------|

the rest of the song is the same chords as the intro just different strumming its not 
to figure out.
this is the guitar near the end of the song
e-----------------------------------------------------------|
b----44--66--------44------------44--66--4-------4----------|   play 2 times
g-66-----------66------6------66-----------6--66---3-6-6----|
d-------------------------6------------------------------6--|
a-----------------------------------------------------------|
e-----------------------------------------------------------|


than its the regular chords and thats it. i hope you like it.  this is my second tab by Shoemake
            

comments powered by Disqus
↑ Back to top | Fm Static Tabs for Moment Of Truth. Lyrics for acoustic guitar and electric guitar. Tablatures and chords are parodies/interpretations of the original songs. You may use it for private study, scholarship, research or language learning purposes only