» » »

Fuck You, O.C Tabs (ver.1)

Artists:  A B C D E F G H I J K L M N O P Q R S T U V W X Y Z # 

Fuck You, O.C Tabs (ver.1)

F-minus
Rating:
0/5 (0 votes)

Hard to play? Try these video lessons and learn fast.
                Label: Alternative Tentacles/Blacknoise

Really simple song to play. I've tabbed it from beginning to end.
If you have any suggestions or whatever, just leave a comment.


   Guitar 1             "Ahhhhh..."
e|--------------------|--------------------|
B|--------------------|--------------------|
G|-6-6--4-4--9-9--6-6-|-6-6--4-4--9-9--6-6-|
D|-6-6--4-4--9-9--6-6-|-6-6--4-4--9-9--6-6-|
A|-4-4--2-2--7-7--4-4-|-4-4--2-2--7-7--4-4-|
E|--------------------|--------------------|
 | Guitar 2
e|--------------------|--------------------|
B|--------------------|--------------------|
G|--------------------|--------------------|
D|-11-----------------|-11-----------------|
A|-11-----------------|-11-----------------|
E|-9------------------|-9------------------|

  Verse...
   Guitar 1
e|--------------------|--------------------|
B|--------------------|--------------------|
G|-6--6---4-4--9---6--|-6--6---4-4--9---6--|
D|-6--6---4-4--9---6--|-6--6---4-4--9---6--|
A|-4--4---2-2--7---4--|-4--4---2-2--7---4--|
E|--------------------|--------------------|
 | Guitar 2
e|--------------------|--------------------|
B|--------------------|--------------------|
G|--------------------|--------------------|
D|-11-11--9-9--14--11-|-11-11--9-9--14--11-|
A|-11-11--9-9--14--11-|-11-11--9-9--14--11-|
E|-9--9---7-7--12--9--|-9--9---7-7--12--9--|

  "f**k you O.C., f**k you!        f**k you O.C., f**k you!!"     (cough)
   Guitar 1
e|-------------------------------|-------------------------------|
B|-------------------------------|-------------------------------|
G|-9--9---9--9---9--9---6--6--6--|-9--9---9--9---9--9---6--6--6--|
D|-9--9---9--9---9--9---6--6--6--|-9--9---9--9---9--9---6--6--6--|
A|-7--7---7--7---7--7---4--4--4--|-7--7---7--7---7--7---4--4--4--|
E|-------------------------------|-------------------------------|
 | Guitar 2
e|-------------------------------|-------------------------------|
B|-------------------------------|-------------------------------|
G|-------------------------------|-------------------------------|
D|-14-14--14-14--14-14--11-11-11-|-14-14--14-14--14-14--11-11-11-|
A|-14-14--14-14--14-14--11-11-11-|-14-14--14-14--14-14--11-11-11-|
E|-12-12--12-12--12-12--9--9--9--|-12-12--12-12--12-12--9--9--9--|

THE END
            
Hard to play? Try these video lessons and learn fast. | Correct




comments powered by Disqus
↑ Back to top | Tablatures and chords are parodies/interpretations of the original songs. You may use it for private study, scholarship, research or language learning purposes only