» » »

White Collar Craime Tabs (ver.1)

Artists:  A B C D E F G H I J K L M N O P Q R S T U V W X Y Z # 

White Collar Craime Tabs (ver.1)

F Minus
Rating:
0/5 (0 votes)

Hard to play? Try these video lessons and learn fast.
                WHITE COLLAR CRIME - F-Minus 

/ means strum not slide 

verse part 1: 
e|---------------------------------------------------------------------------| 
B|---------------------------------------------------------------------------| 
G|999-10-9-7---------------555-----------------------------------------------| 
D|999-10-9-7-times 3 then:-555-555-------------------------------------------| 
A|777--8-7-5---------------333-555-------------------------------------------| 
E|-----------------------------333-------------------------------------------| 

verse part 2: 
e|---------------------------------------------------------------------------| 
B|---------------------------------------------------------------------------| 
G|999-10-9-7---------------555-----------------------------------------------| 
D|999-10-9-7-times 3 then:-555-777-------------------------------------------| 
A|777--8-7-5---------------333-777-------------------------------------------| 
E|-----------------------------555-------------------------------------------| 

little bridge before chorus: 
e|---------------------------------------------------------------------------| 
B|---------------------------------------------------------------------------| 
G|8/-------------------------------------------------------------------------| 
D|8/-------------------------------------------------------------------------| 
A|6/-------------------------------------------------------------------------| 
E|---------------------------------------------------------------------------| 

chorus: 
e|---------------------------------------------------------------------------| 
B|---------------------------------------------------------------------------| 
G|9/--6/---------------------------------------------------------------------| 
D|9/--8/---------------------------------------------------------------------| 
A|7/--8/=--------------------------------------------------------------------| 
E|---------------------------------------------------------------------------| 

figure out the order yourself 

throw in some pickslides before the verses 
            
Hard to play? Try these video lessons and learn fast. | Correct




comments powered by Disqus
↑ Back to top | Tablatures and chords are parodies/interpretations of the original songs. You may use it for private study, scholarship, research or language learning purposes only