» » »

F Minus, Tomorrow Burns Tabs (ver.1)

Artists:  A B C D E F G H I J K L M N O P Q R S T U V W X Y Z # 

Tomorrow Burns Tabs (ver.1)

F Minus Tabs
 Rating:
4/5 (4 votes)
Tomorrow Burns lessons Tabs too difficult? Try these video lessons and learn fast
1
                TOMORROW BURNS - F-Minus 

VERSE 
e:--------------------------------------------------------------- 
B:--------------------------------------------------------------- 
G:--------------------------------------------------------------- 
D:--7--7/8--8/7--7/8--8/7--7/8--8--5--5--5--5-------------------- 
A:--7--7/8--8/7--7/8--8/7--7/8--8--5--5--5--5-------------------- 
E:--5--5/6--6/5--5/6--6/5--5/6--6--3--3--3--3-------------------- 

CHORUS 
e:--------------------------------------------------------------- 
B:--------------------------------------------------------------- 
G:--5--5--5--5--------------------------------------------------- 
D:--5--5--5--5--5--5--5--5--7--7--X--X--7--7--X--X--------------- 
A:--3--3--3--3--5--5--5--5--7--7--X--X--7--7--X--X--------------- 
E:--------------3--3--3--3--5--5--X--X--5--5--X--X--------------- 

VERSE x 6 
CHORUS x 3 
e:--------------------------- 
B:--------------------------- 
G:--5--5--5--5--------------- 
D:--5--5--5--5--5--5--5--5--- 
A:--3--3--3--3--5--5--5--5--- 
E:--------------3--3--3--3--- 
VERSE x 6 
CHORUS x 3 

end with a bunch of noise and high power chords... 
            
Submit corrections

comments powered by Disqus
↑ Back to top | F Minus Tabs for Tomorrow Burns. Lyrics for acoustic guitar and electric guitar. 1 Tablatures and chords are parodies/interpretations of the original songs. You may use it for private study, scholarship, research or language learning purposes only