» » »

F Minus, Property Damage Bass tabs (ver.1)

Artists:  A B C D E F G H I J K L M N O P Q R S T U V W X Y Z # 

Property Damage Bass tabs (ver.1)

F Minus Tabs
 Rating:
4/5 (4 votes)
Property Damage lessons Tabs too difficult? Try these video lessons and learn fast
                notes that look like --33-- mean you should play 3 twice really fast

verse

g ---------------------------------------------------- (x4)
d ----------------------------------------------------
a --333-----333------5-5-5-5-6-6-6-6------------------
e ------3-------3-------------------------------------

chorus

g ---------------------------------------------------- (x4)
d ----------------------------------------------------
a ----------8-8-8-8---------6-6-6-6-------------------
e --6-6-6-6---------3-3-3-3---------------------------

bridge

g ----------------------------------------------------
d ----------------------------------------------------
a ---------------------------6-6-6-6------------------
e --3--33---3--33----6-6-6-6--------------------------

g ----------------------------------------------------
d ----------------------------------------------------
a ---------------------------5-5-5-5------------------
e --3--33---3--33----6-6-6-6--------------------------

ending

g ----------------------------------------------------
d ----------------------------------------------------
a --333-----333---------------------------------------
e ------3-------3-------------------------------------

verse
chorus
verse
chorus
bridge
chorus
ending
            
Submit corrections

comments powered by Disqus
↑ Back to top | F Minus Bass for Property Damage. Lyrics for acoustic guitar and electric guitar. Tablatures and chords are parodies/interpretations of the original songs. You may use it for private study, scholarship, research or language learning purposes only