» » »

F Minus, Capital Murder Tabs (ver.1)

Artists:  A B C D E F G H I J K L M N O P Q R S T U V W X Y Z # 

Capital Murder Tabs (ver.1)

F Minus Tabs
 Rating:
4/5 (4 votes)
Capital Murder lessons Tabs too difficult? Try these video lessons and learn fast
                CAPITAL MURDER - F-Minus 

Intro/Verse: 
e|--------------------------| 
B|--------------------------| 
G|-------3-3-3-------4-4-4--| 
D|-4-4-4-3-3-3-5-5-5-4-4-4--| 
A|-4-4-4-1-1-1-5-5-5-2-2-2--| 
E|-2-2-2-------3-3-3--------| 

Chorus: 
e|------------------------| 
B|------------------------| 
G|-4-4-4-4-4-4------------| 
D|-4-4-4-4-4-4-4-4-4-4-4-4| 
A|-2-2-2-2-2-2-4-4-4-4-4-4| 
E|-------------2-2-2-2-2-2| 
            
Submit corrections

comments powered by Disqus
↑ Back to top | F Minus Tabs for Capital Murder. Lyrics for acoustic guitar and electric guitar. Tablatures and chords are parodies/interpretations of the original songs. You may use it for private study, scholarship, research or language learning purposes only