» » »

Fly My Pretties, Quiet Girl Chords (ver.1)

Artists:  A B C D E F G H I J K L M N O P Q R S T U V W X Y Z # 

Quiet Girl Chords (ver.1)

Fly My Pretties Tabs
 Rating:
4/5 (4 votes)
Quiet Girl lessons Tabs too difficult? Try these video lessons and learn fast
                
Chords:
   Gm   F    C7
e--3----1----3---------------------------------------------------|
B--3----1----5---------------------------------------------------|
G--3----2----3---------------------------------------------------|
D--5----3----5---------------------------------------------------|
A--5----3----3---------------------------------------------------|
E--3----1--------------------------------------------------------|

Intro Riff:
e----------------------------------------------------------------|
B-2h3p2p0---0---0------------------------------------------------|
G---------3---2---0~---------------------------------------------|
D----------------------------------------------------------------|
A----------------------------------------------------------------|
E----------------------------------------------------------------|

Intro:

Gm - F - C7

Gm

  F        C7     Gm         F  C7 Gm
I meet you in the meantime
In place so fine it moves my mind
In the wind, in the wind, in
To burn and be cindered
And I've been cindered so far

    F       C7             Gm
But I still love the quiet girl
I still love the quiet girl
I still love the quiet girl
I still love the quiet


Play in the soft, soft grass
Call in the wild wall I built it all
Nice shadows casting my clouds
Built to last and built to send up
All to the colour of this world and on and on


But I still love the quiet girl
I still love the quiet girl
I still love the quiet girl
I still love the quiet


Never been sure about the lyrics. Any alternatives please comment.
            
Submit corrections

comments powered by Disqus
↑ Back to top | Fly My Pretties Chords for Quiet Girl. Lyrics for acoustic guitar and electric guitar. Tablatures and chords are parodies/interpretations of the original songs. You may use it for private study, scholarship, research or language learning purposes only