» » »

Fly My Pretties, Lucky Tabs (ver.1)

Artists:  A B C D E F G H I J K L M N O P Q R S T U V W X Y Z # 

Lucky Tabs (ver.1)

Fly My Pretties Tabs
Rating:
0/5 (0 votes)
Lucky lessons Tabs too difficult? Try these video lessons and learn fast
                
Chords:
   Dm   C   Bb   Ab  A
E---5---3---1----6---5-------------------------------------------|
B---6---3---1----6---5-------------------------------------------|
G---7---5---3----7---6-------------------------------------------|
D---7---5---3----8---7-------------------------------------------|
A---5---3---1----8---7-------------------------------------------|
E----------------6---5-------------------------------------------|

Intro:
C - Dm x4

                       Dm
I'm not a christian man
But I believe in angels
             C              Bb
Ever since I met you girl
                     C Dm
I believe in angels

                    Dm
Cause I'm a believer
I believe in you oh
      C              Bb
I'm a believer baby
                                 C Dm
In the sugar sweet things you do

Ab
And I know I can be kinda negative
        A                                             C Dm
But I'm sure I've never had a love as strong as this
Ab
And I know I can be a pessimist
        A                                           C Dm
But I'm sure I've never had a love as good as this

Guitar Fill 1

I'm not crazy no
But i believe in paradise
Ever since you pulled me up
Never met anyone as nice

I'm not dreaming no
But I believe in love
Because it feels like I won the jackpot
When I feel your tender touch

And I know I can be kinda negative
But I'm sure i've never had a love as strong as this
And I know I can be a pessimist
But I'm sure I've never had a love as strong as this

Guitar Fill 2

Oh I can be a fool
So I put it to the test
I gave her mum a shake-up
And almost made a mess
But It didn't take long
For me to realise
That I am a winner
And baby you are the prize

And I know I can be kinda negative
But I'm sure I've never had a love as strong as this
And I know I can be a pessimist
But I'm sure I've never had a love as strong as this

Guitar Fill 3

Dm break

C - Dm x2


Guitar Fill 1:
E----------------------------------------------------------------|
B------5---------------------------------------------------------|
G--7b9-7b9r7-7------5-5------------------------------------------|
D---------------5h7----------------------------------------------|
A-----------------------5----------------------------------------|
E----------------------------------------------------------------|

Guitar Fill 2
E----------------------------------------------------------------|
B------5---5-----------------------------------------------------|
G--7b9-7b9-7b9r7p5-----------------------------------------------|
D-------------------------3-3------------------------------------|
A---------------------3h5-----5~---------------------------------|
E-----------------3h5--------------------------------------------|

Guitar Fill 3
E----------------------------------------------------------------|
B----------------------------------------------------------------|
G--7/9-5-7/9-5-7-------------5-----------------------------------|
D--------------------3---5/7---7-7~------------------------------|
A----------------3/5----------------5~-5~-3-5-(3)-(5)------------|
E----------------------------------------------------------------|
            
Submit corrections

comments powered by Disqus
↑ Back to top | Fly My Pretties Tabs for Lucky. Lyrics for acoustic guitar and electric guitar. Tablatures and chords are parodies/interpretations of the original songs. You may use it for private study, scholarship, research or language learning purposes only