» » »

Fly My Pretties, Champion Tabs (ver.2)

Artists:  A B C D E F G H I J K L M N O P Q R S T U V W X Y Z # 

Champion Tabs (ver.2)

Fly My Pretties Tabs
 Rating:
4/5 (4 votes)
Champion lessons Tabs too difficult? Try these video lessons and learn fast
                -------------------------------------------------------------------------------
                             Champion - Fly My Pretties
-------------------------------------------------------------------------------

Tuning: Standard
I was astounded when searching for this good Kiwi song on the internet, that no-one had
this! So I had to sit down and tab it myself! This may or may not be accurate as I didnt
the song to listen to, so I did it from what I remembered the song sounding like. This 
is so cool and I never get sick of playing it! Enjoy
e|--------------------------------------------------------------------------------|
B|-----1---1--------------1-----1-------------------------------------------------|
G|-----2------2-----------2----------2--------------------------------------------|
D|-3-----------------3------------------------------------------------------------|
A|--------------------------------------------------------------------------------|
E|--------------------------------------------------------------------------------|

e|----------------------------------0-------------------------------------------|
B|------1------1-------------0h1--------1---------------------------------------|
G|------0------------0-----------------------0----------------------------------|
D|------------------------------------------------------------------------------|
A|-3----------------------------------------------------------------------------|
E|------------------------------------------------------------------------------|

e|-----------------------------------------------------------------------------|
B|------1------1--------------------1----------1----------0--------------------|
G|------0-----------0---------------0----------0----------0--------------------|
D|-----------------------------------------------------------------------------|
A|-----------------------------------------------------------------------------|
E|---3------------------------3-----------3---------------3--------------------|

e|----------------------------1----0----------------------|
B|---------------0----------------------0h1---------------|  Basically Repeat for
G|----------0---------------------------------------------|   the hole song!!
D|--------------------------------------------------------|   (with minor variation,
A|--------------------------------------------------------|   like sometimes missing out
E|---3----------------------------------------------------|   middle solo bit)


| /  slide up
| \  slide down
| h  hammer-on
| p  pull-off
| ~  vibrato
| +  harmonic
| x  Mute note
===============================================================================
            
Submit corrections

comments powered by Disqus
↑ Back to top | Fly My Pretties Tabs for Champion. Lyrics for acoustic guitar and electric guitar. Tablatures and chords are parodies/interpretations of the original songs. You may use it for private study, scholarship, research or language learning purposes only