» » »

Fly My Pretties, Bag Of Money Bass tabs (ver.1)

Artists:  A B C D E F G H I J K L M N O P Q R S T U V W X Y Z # 

Bag Of Money Bass tabs (ver.1)

Fly My Pretties Tabs
 Rating:
4/5 (4 votes)
Bag Of Money lessons Tabs too difficult? Try these video lessons and learn fast
1
                -------------------------------------------------------------------------------
-------------------------------------------------------------------------------


Tuning:Standard
1st Riff(R1)
G|---------------------------------------------------------------------------|
D|---------------------------------------------------------------------------|
A|----5--5--3--5--------------------------3h5--3h5---------------------------|
E|----------------3-----3--4--5--3--1--0-------------------------------------| 
2nd Riff(R2)
G|-------------------3--5--3-------------------------------------------------|
D|----------3--5--7-----------7--5--3--2-------------------------------------|
A|----5-----------------------------------3h5--3h5---------------------------|
E|---------------------------------------------------------------------------|

0.00-1.18 Play R1x2, R2, R1x7, R2, R1, R2, R1.

1.18(Solo/Bridge):
G|---------------------------------------------------------------------------|
D|----7-----5-----5--3-------------------------------------------------------|
A|----------------------5-----5--5--7--3--5-----5-5----5--3------------------|
E|-----------------------------------------------------------5--4--3--5--4--3|

G|---------------------------------------------------------7-----------------|
D|------------------------------------8-----------------7--------------------|
A|--------------3h5--3h5-----------8--------------5-------------------------7|
E|--5--3--1--0---------------6----------------------------------------5------|

G|-----------------------7-----------------------------------------7---------|
D|--7-----------------7-----------------------8-----------------7------------|
A|--------------5--------------------------8--------------5------------------|
E|-----------------------------------6---------------------------------------|

G|---------------------------------------------------------------------------|
D|-----------7-----------7--5--3--2------------------------------------------|
A|--------7--------------------------3h5---3h5-------------------------------|
E|--5------------------------------------------------------------------------|


Then play R1x2, R2, R1, R2, R1,  and finish off by playing Solo/Bridge part again. Presto

I also have a guitar tab so you can play the song with more people . Enjoy =)

Cheers,

Scotty



| /  slide up
| \  slide down
| h  hammer-on
| p  pull-off
| ~  vibrato
| +  harmonic
| x  Mute note
===============================================================================
            
Submit corrections

comments powered by Disqus
↑ Back to top | Fly My Pretties Bass for Bag Of Money. Lyrics for acoustic guitar and electric guitar. 1 Tablatures and chords are parodies/interpretations of the original songs. You may use it for private study, scholarship, research or language learning purposes only