» » »

Breathe Today Tabs (ver.5)

Artists:  A B C D E F G H I J K L M N O P Q R S T U V W X Y Z # 

Breathe Today Tabs (ver.5)

Flyleaf
Rating:
4/5 (1 vote)

Hard to play? Try these video lessons and learn fast.
                I'm not sure if there's a version of this same tab somewhere else... 
But i know that theres alot of differant version of this tab
so i started combining the parts that i thought where correct...
I think its right (sorry if i get the lyrics wrong, i tryed my best)

DROP D
You try your hardest to perfect your explanations...
You lie until they've run out of questions
[After] You can only move, as fast as, who’s in front of you.
e|--------------------------|
B|--------------------------|
G|--------------------------|
D|-5-7-5---4-5-4------------|
A|-5-7-5---4-5-4------------|
D|-5-7-5---4-5-4------------|
And if you assume, just like them, what good will it do?
e|------------|------------|------------|------------|------------|
B|------------|------------|------------|------------|------------|
G|------------|------------|------------|------------|------------|
D|------------|------------|------------|-5-7-5------|-4-5-4------| <-VERSE
A|-9-9--------|-9-9--------|-9-9--------|-5-7-5------|-4-5-4------|
D|-9-9--------|-9-9--------|-9-9--------|-5-7-5------|-4-5-4------|
So Find out for yourself, so your ignorance, will stop bleeding through 
e|------------|------------|------------|------------|------------|
B|------------|------------|------------|------------|------------|
G|------------|------------|------------|------------|------------|
D|------------|------------|------------|-5-7-5------|-4-5-4------|
A|-9-9--------|-9-9--------|-9-9--------|-5-7-5------|-4-5-4------|
D|-9-9--------|-9-9--------|-9-9--------|-5-7-5------|-4-5-4------|
You can breathe today
e|-------------------------|-------------------------|
B|-------------------------|-------------------------|
G|-------------------------|-------------------------|  X 2
D|-5-5-5-5-5-5-5-5---------|-4-4-4-4-4-4-4-4---------|
A|-5-5-5-5-5-5-5-5---------|-4-4-4-4-4-4-4-4---------|
D|-5-5-5-5-5-5-5-5---------|-4-4-4-4-4-4-4-4---------|
So Many, lies swirling, all around you your suffocating
e|------------|------------|------------|------------|------------|
B|------------|------------|------------|------------|------------|
G|------------|------------|------------|------------|------------|
D|-9-9-9-9----|-5-5-5-5----|-7-7-7-7----|-4-2--------|------------| <-Chorus
A|-9-9-9-9----|-5-5-5-5----|-7-7-7-7----|-4-2--------|------------|
D|-9-9-9-9----|-5-5-5-5----|-7-7-7-7----|-4-2--------|------------|
The empty, shape in you, steals your breath your suffocating
e|------------|------------|------------|------------|------------|
B|------------|------------|------------|------------|------------|
G|------------|------------|------------|------------|------------|
D|-9-9-9-9----|-5-5-5-5----|-7-7-7-7----|-4-2--------|------------|
A|-9-9-9-9----|-5-5-5-5----|-7-7-7-7----|-4-2--------|------------|
D|-9-9-9-9----|-5-5-5-5----|-7-7-7-7----|-4-2--------|------------|
Logic forces me, to believe in this, and I have learned to see
And I can only say, what Ive seen and heard, and only you can choose
And every choice you make, will effect you, suit your own self
Repeat Verse X 3

You can breathe today
e|----------------|----------------|----------------|----------------|
B|----------------|----------------|----------------|----------------|
G|----------------|----------------|----------------|----------------|
D|-5-5-5-5-5-5-5-5|-4-4-4-4-4-4-4-4|-2-2-2-2-5-5-5-5|-4-4-4-4-4-4-4-4|
A|-5-5-5-5-5-5-5-5|-4-4-4-4-4-4-4-4|-2-2-2-2-5-5-5-5|-4-4-4-4-4-4-4-4|
D|-5-5-5-5-5-5-5-5|-4-4-4-4-4-4-4-4|-2-2-2-2-5-5-5-5|-4-4-4-4-4-4-4-4|

So many, lies swirling, all around you your suffocating
The empty, shape in you, steals your breath your suffocating
So many, lies swirling, all around you your suffocating
Chorus x3
The empty, shape in you, steals your breath your suffocating
e|------------|------------|------------|------------|------------|
B|------------|------------|------------|------------|------------|
G|------------|------------|------------|------------|------------|
D|-9-9-9-9----|-5-5-5-5----|-7-7-7-7----|-4-/1-------|------------|
A|-9-9-9-9----|-5-5-5-5----|-7-7-7-7----|-4-/1-------|------------|
D|-9-9-9-9----|-5-5-5-5----|-7-7-7-7----|-4-/1-------|------------|

(solo can also be played an octave higher [12 notes higher EX: 1=13])
e|-----------------------|-----------------------|-----------------------|
B|-----------------------|-2-2h3p2-2h3-2h3-2h3-4^|-----------------------|
G|-1h2p1-1h2-1h2-1h2-3^--|-----------------------|-----------------------|
D|-----------------------|-----------------------|-----------------------|
A|-----------------------|-----------------------|-----------------------|
D|-----------------------|-----------------------|-----------------------|
BREATH!
Verse x1

(Figure out strumming patter)
Big enough to fill the void thats inside of you
e|------------|------------|------------|------------|------------|
B|------------|------------|------------|------------|------------|
G|------------|------------|------------|------------|------------|
D|-2-2--2-2---|-2-2--5-5---|-4-4--4-4---|-4-4--4-4---|------------|
A|-2-2--2-2---|-2-2--5-5---|-4-4--4-4---|-4-4--4-4---|------------|
D|-2-2--2-2---|-2-2--5-5---|-4-4--4-4---|-4-4--4-4---|------------|
Its just a breath away
e|------------|------------|------------|------------|------------|
B|------------|------------|------------|------------|------------|
G|------------|------------|------------|------------|------------|
D|-2-2--2-2---|-2-2--5-5---|-4-4--4-4---|-4-4--------|------------|
A|-2-2--2-2---|-2-2--5-5---|-4-4--4-4---|-4-4--------|------------|
D|-2-2--2-2---|-2-2--5-5---|-4-4--4-4---|-4-4--------|------------|


So many, lies swirling, all around you your suffocating
Chorus x1
The empty, shape in you, steals your breath, your suffocating
e|------------|------------|------------|------------|------------|
B|------------|------------|------------|------------|------------|
G|------------|------------|------------|------------|------------|
D|-9-9-9-9----|-5-5-5-5----|-7-7-7-7----|-4-/1-------|------------|
A|-9-9-9-9----|-5-5-5-5----|-7-7-7-7----|-4-/1-------|------------|
D|-9-9-9-9----|-5-5-5-5----|-7-7-7-7----|-4-/1-------|------------|
So many lies swirling, all around you, you're suffocating
The empty shape in you, steals your breath (breathe!),
So many lies swirling, all around you (breathe!), you're suffocating,
Chorus x3
The empty shape in you, Breathe today. 
e|------------|------------|------------|------------|------------|
B|------------|------------|------------|------------|------------|
G|------------|------------|------------|------------|------------|
D|-9-9-9-9----|-5-5-5-5----|-7-7-7-7----|-4-/1-------|------------|
A|-9-9-9-9----|-5-5-5-5----|-7-7-7-7----|-4-/1-------|------------|
D|-9-9-9-9----|-5-5-5-5----|-7-7-7-7----|-4-/1-------|------------|


Like i said, im not 100% sure on the lyrics... But im pretty sure the tab is right.
/=slide
^=bend
h=hammer on
p=pull off
            
Hard to play? Try these video lessons and learn fast. | Correct




comments powered by Disqus
↑ Back to top | Tablatures and chords are parodies/interpretations of the original songs. You may use it for private study, scholarship, research or language learning purposes only