» » »

Flyleaf, Breathe Today Tabs (ver.4)

Artists:  A B C D E F G H I J K L M N O P Q R S T U V W X Y Z # 

Breathe Today Tabs (ver.4)

Flyleaf Tabs
Rating:
4/5 (5 votes)
Breathe Today lessons Tabs too difficult? Try these video lessons and learn fast
                Tuning: Drop D

e|-------------------------------------------------------------------------|
B|-------------------------------------------------------------------------|
G|---44-44-44--------------------------------------------------------------|
D|---44-44-44--------------------------------------------------------------|
A|---22-22-22--------------------------------------------------------------|
D|--------------5/7\5--4/5\4-----------------------------------------------|

e|-------------------------------------------------------------------------|
B|-------------------------------------------------------------------------|
G|-------------------------------------------------------------------------|
D|--55555555--44444444--2222--5555--44444444-------------------------------|
A|--55555555--44444444--2222--5555--44444444-------------------------------|
D|--55555555--44444444--2222--5555--44444444-------------------------------|

e|-------------------------------------------------------------------------|
B|-------------------------------------------------------------------------|
G|--4----------------------------------------------------------------------|
D|--4--5--7--4-2-----------------------------------------------------------|
A|--2--5--7--4-2-----------------------------------------------------------|
D|-----5--7--4-2-----------------------------------------------------------|

e|-------------------------------------------------------------------------|
B|-------------------------------------------------------------------------|
G|---44-44-44--------------------------------------------------------------|
D|---44-44-44--------------------------------------------------------------|
A|---22-22-22--------------------------------------------------------------|
D|--------------5/7\5--4/5\4-----------------------------------------------|

e|-------------------------------------------------------------------------|
B|-------------------------------------------------------------------------|
G|-------------------------------------------------------------------------|
D|--55555555--44444444--2222--5555--44444444-------------------------------|
A|--55555555--44444444--2222--5555--44444444-------------------------------|
D|--55555555--44444444--2222--5555--44444444-------------------------------|

e|-------------------------------------------------------------------------|
B|-------------------------------------------------------------------------|
G|--4----------------------------------------------------------------------|
D|--4--5--7--4-2-----------------------------------------------------------|
A|--2--5--7--4-2-----------------------------------------------------------|
D|-----5--7--4-2-----------------------------------------------------------|

e|-------------------------------------------------------------------------|
B|-------------------------------------------------------------------------|
G|-------------------------------------------------------------------------|
D|--2222--5555--44444444---------------------------------------------------|
A|--2222--5555--44444444---------------------------------------------------|
D|--2222--5555--44444444---------------------------------------------------|

e|-------------------------------------------------------------------------|
B|-------------------------------------------------------------------------|
G|--4----------------------------------------------------------------------|
D|--4--5--7--4-2-----------------------------------------------------------|
A|--2--5--7--4-2-----------------------------------------------------------|
D|-----5--7--4-2-----------------------------------------------------------|

e|-------------------------------------------------------------------------|
B|-------------------------------------------------------------------------|
G|-------------------------------------------------------------------------|
D|--2--5--4----------------------------------------------------------------|
A|--2--5--4----------------------------------------------------------------|
D|--2--5--4----------------------------------------------------------------|

e|-------------------------------------------------------------------------|
B|-------------------------------------------------------------------------|
G|--4----------------------------------------------------------------------|
D|--4--5--7--4\------------------------------------------------------------|
A|--2--5--7--4\------------------------------------------------------------|
D|-----5--7--4\------------------------------------------------------------|
            

comments powered by Disqus
↑ Back to top | Flyleaf Tabs for Breathe Today. Lyrics for acoustic guitar and electric guitar. Tablatures and chords are parodies/interpretations of the original songs. You may use it for private study, scholarship, research or language learning purposes only