>
 >
All Around Me Intro

All Around Me Intro Guitar Tabs

Flyleaf - All Around Me Intro chords, tabs, tablatures, lyrics

Guitar lessons | Add/correct | Request | Top 50 tabs Artists:  A B C D E F G H I J K L M N O P Q R S T U V W X Y Z 0-9

All Around Me Intro Guitar Tabs – Flyleaf

CD, Sheet music, Poster

Do you like All Around Me Intro? Share with your friends now
Tabs
Intro Palm mute- Guitar 1, clean |  Open chords, Distortion used
  F#m             A5         Asus2 D5 D6 D5 D6/9
e---------------------------------|---------------------------------|
b---------------------------------|---------101010101010101010------|
g---------------------------------|---------9-9-9-9-9-9-9-9-9-------|
D-----------------------------9-9-|---7-9-7-9-9-9-9-9-9-9-9-9-------|
A---------4-4-4-4/7-7-7-7-7-7-7-7-|-0-0-0-0-------------------------|
D-4-4-4-4-4-4-4-4/7-7-7-7-7-7-7-7-|-0-0-0-0-------------------------|

Intro-Guitar 2, clean
  F#m             A5         Asus2 D5 D6 D5 D6/9
e-------0-------------------------|-0-------------------------------|
b---------2-----------------------|---------------------------------|
g--2---------------------------2-|---------------------------------|
D-4---4---------------------------|---------------------------------|
A---------------------------------|---------------------------------|
D---------------------------------|---------------------------------|

Intro Guitar 1 continued
  F#m             A5               E5              D5
e-------0-------------------)-----|-----)------0--------------------|--------------|
b--------------------------/--\---|----/-\-----0--------------------|--------------|
g---2---------------------6---(6)-|-6-6--(6)------------------------|--------------|
D-4---4-------------4-7-4---------|------------------9h11p9-7h9-7h9-|--------13-14-|
A---------------------------------|---------7-----------------------|-4------------|
D---------------------------------|---------------------------------|--------------|

Intro Guitar 2 continued
  F#m             A5                E5              D5
e---------------------------------|---------------------------------|--------------|
b---------------------------------|---------------------------------|--------------|
g---------------------------------|---------------------------------|--------------|
D-4-4-----4-4-----7-7-----7-7-----|-2-2----2-2-----0-0-----0-0-----|-0------------|
A-4-4-----4-4-----7-7-----7-7-----|-2-2----2-2-----0-0-----0-0-----|-0------------|
D-4-4-----4-4-----7-7-----7-7-----|-2-2----2-2-----0-0-----0-0-----|-0------------|





Comments


Popular Flyleaf tabs & chords
All Around Me 2 Bass Tabs
Cassie 7 Bass Tabs
Again Chords
In The Dark Chords
Saving Grace 1 Chords
New Horizons 2 Tabs
Arise Ukulele
Chasm Ukulele
Circle Ukulele
Perfect Ukulele


Song lyrics



↑ Back to top | Tablatures and chords are parodies/interpretations of the original songs. You may use it for private study, scholarship, research or language learning purposes only
© 2014 AZChords.com Contact us | Privacy policy | DMCA | Add/correct tabs | Request tabs | Top 50 tabs