» » »

Flyleaf, All Around Me Tabs (ver.6)

Artists:  A B C D E F G H I J K L M N O P Q R S T U V W X Y Z # 

All Around Me Tabs (ver.6)

Flyleaf Tabs
 Rating:
4/5 (4 votes)
All Around Me lessons Tabs too difficult? Try these video lessons and learn fast
                (Acoustic)
this is my first tab.
 Not all of it is there 
( the first bridge is missing). 
please rate and message me for any changes or suggestions.

Tuning:Standard

Intro
e|-0---0---0-000--0--0---0---000--0-0|
B|-0---0---0-000--0--0---0---000-0--0|
G|-11--9---7-777--11--9--7--777---7-7|2x
D|-11--9---7------11--9--7-----------|
A|-9---7---5------9---7--5-----------|
E|-0---0---0------0---0--0-----------|

Verse
e|-0--0--0-0000---------|
B|-0--0--0-0000---------|
G|-11-9--7-7777---------|6x
D|-11-9--7--------------|
A|-9--7--5--------------|
E|-0--0--0--------------|

Refrain
e|--0--0--0---0--0--0----0--0--0--0---0--0--0---0--0--0----0---0--0---0--0--|
B|-0--0--0---0--0--0----0--0--0--0---0--0--0---0--0--0----0---0--0---0--0---|
G|--------------------------------------------------------------------------|
D|----------7--7--7--7/9--9--9--7-------------7--7--7--7/9--9---9--7---7----|
A|9--9--9--------------------------9---9--9---------------------------------|
E|--------------------------------------------------------------------------|

(cont. from above)
e|----0---0--0--0----0----0-------------------------------------------------|
B|--0---0---0--0----0---0---------------------------------------------------|
G|--------------------------------------------------------------------------|
D|--------------------------------------------------------------------------|
A|-7---9---9--9---11---11---------------------------------------------------|
E|-------------------0------------------------------------------------------|

Chorus (these are 11's)
e|00000------00000-00000-00000-00000----------------------------------------|
B|00000------00000-00000-00000-00000----------------------------------------|
G|1111111111-00000-77777-77777-1111111111-----------------------------------|
D|1111111111-22222-07070-00000-1111111111-----------------------------------|
A|99999------22222-55555-77777-99999----------------------------------------|
E|00000------00000-00000-00000-00000----------------------------------------|

this is the refrian after the first bridge 
(Which i will figure out at a later time and post).
Play the refrain again but at the end play this.

e|-0----|
B|-0----|
G|-x----|
D|-11---|
A|-0----|
E|------|

2nd Bridge
(Take my hand i give it to you...)
e|-0-x--|
B|-0-x--|
G|-11x--| Strum really fast
D|-11x--|
A|-9-x--|
E|-0-x--|

Intro
Verse
Refrain
Chorus
Verse
Refrain
Chorus
Bridge #1(coming later)
Refrain + Refrain #2
Chorus
Bridge #2
Chorus

Well there it is,like i said any corrections or stuff message me. Enjoy! XD
************************************

| /   slide up
| \   slide down
| h   hammer-on
| p   pull-off
| ~   vibrato
| +   harmonic
| x   Mute note
            
Submit corrections

comments powered by Disqus
↑ Back to top | Flyleaf Tabs for All Around Me. Lyrics for acoustic guitar and electric guitar. Tablatures and chords are parodies/interpretations of the original songs. You may use it for private study, scholarship, research or language learning purposes only