» » »

All Around Me Tabs (ver.1)

Artists:  A B C D E F G H I J K L M N O P Q R S T U V W X Y Z # 

All Around Me Tabs (ver.1)

Flyleaf
Rating:
0/5 (0 votes)

Hard to play? Try these video lessons and learn fast.
                (Acoustic)
Drop D tuning (Optional if you want heavier sound for the chords) otherwise play only 

I transposed this piece from David Crowder's piano cover.

Intro.

E|-----------------------------------------------------------------|
B|-----------------------------------------------------------------|
G|-----0-------0-------0-------0-------0-------0-------0-------0---|
D|---9---9---9---9---7---7---7---7---5---5---5---5---5---5---5---5-|
A|-7-------7-------5-------5-------3-------3-------3-------3-------|
D|-----------------------------------------------------------------|

Verse 1: (x5)

  My  hands  are searching for you..................My arms are outstretched towards you..........
  I   feel  you   on   my   fingertips..............My tongue dances   behind     my 
  for yo-
  ouu....
  This    fire     rising   through   my    being..............Burning    I'm not used 
 seeing

E|-------------------------------------------------------------------------------------------------|
B|-------------------------------------------------------------------------------------------------|
G|--------0-----------0-----------0-----------0-----------0-----------0-----------0-----------0----|
D|-----9-----9-----9-----9-----7-----7-----7-----7-----5-----5-----5-----5-----5-----5-----5-----5-|
A|--7-----------7-----------5-----------5-----------3-----------3-----------3-----------3----------|
D|-------------------------------------------------------------------------------------------------|

  Youuuuuuuuuuuuuuu..                                      I'm alive

E|-------------------------------------------------------------------|
B|-------------------------------------------------------------------|
G|-----0-------0-------0-------0-------4-------4-------5-------5-----|
D|---9---9---9---9---7---7---7---7---4---4---4---4---5---5---5---5---|
A|-7-------7-------5-------5-------2-------2-------3-------3---------|
D|-------------------------------------------------------------------|

                   I'm alive......
E|--------------------------------------------------------------------|
B|--------------------------------------------------------------------|
G|-----4-------4-------5-------5--------0-------0--------0-------0----|
D|---4---4---4---4---5---5---5---5----5---5---5---5----5---5---5---5--|
A|-2-------2-------3-------3--------3-------3--------3-------3--------|
D|--------------------------------------------------------------------|


   I can  feel you all around me  Thickening  the air I'm breathing
   Holding on to what I'm feelin  Savoring this heart thats healing
E|-------------------------------------------------------------------------------------------------|
B|-------------------------------------------------------------------------------------------------|
G|--------0-----------0-----------0-----------0-----------0-----------0-----------0-----------0----|
D|-----9-----9-----9-----9-----7-----7-----7-----7-----5-----5-----5-----5-----5-----5-----5-----5-|
A|--7-----------7-----------5-----------5-----------3-----------3-----------3-----------3----------|
D|-------------------------------------------------------------------------------------------------|

These patterns repeat throughout the whole song. You can start strumming the held chords 
you progress.
Then you can add in a note as you go deeper into the climax for more expression.

E|-----------|
B|-8---7---5-|
G|-----------|
D|-9---7---5-|
A|-7---5---3-|
D|-----------|
            
Hard to play? Try these video lessons and learn fast. | Correct




comments powered by Disqus
↑ Back to top | Tablatures and chords are parodies/interpretations of the original songs. You may use it for private study, scholarship, research or language learning purposes only