» » »

Flyleaf, All Around Me Tabs (ver.7)

Artists:  A B C D E F G H I J K L M N O P Q R S T U V W X Y Z # 

All Around Me Tabs (ver.7)

Flyleaf Tabs
 Rating:
3.7/5 (6 votes)
All Around Me lessons Tabs too difficult? Try these video lessons and learn fast
                RATE PLEASE, this is my first tab

Intro
Guitar 1
----------------|----------------|---------------|-------------------------|
----------------|----------------|---------------|-------------------------|
-------9-7--7-9-|-------9-7--7b8-|-------9-7-7b8-|---9-9/11----------------|
-7-7-7----------|-7-7-7----------|-7-7-7---------|-7-----------------------|
----------------|----------------|---------------|-------------------------|
----------------|----------------|---------------|-------------------------|

Guitar 2
-----------------|-----------------|-----------------|------------------------|
-----------------|-----------------|-----------------|------------------------|
-----------------|-----------------|-----------------|------------------------|
-5-5-5-5-5-5-5-5-|-7-7-7-7-7-7-7-7-|-4-4-4-4-4-4-4-4-|-5---7---4---5---5------|
-5-5-5-5-5-5-5-5-|-7-7-7-7-7-7-7-7-|-4-4-4-4-4-4-4-4-|-5---7---4---5---5------|
-5-5-5-5-5-5-5-5-|-7-7-7-7-7-7-7-7-|-4-4-4-4-4-4-4-4-|-5---7---4---5---5------|
(pm---------------------------------------------------------------------------|

Verse: i have no idea, sorry

Pre-Chorus
Guitar 1
-------------7---|-------------7---|-------------|
-5-7-5-7-5-7---5-|-5-7-5-7-5-7---5-|-11-11-11-11-| X4- on the fifth time play the
-----------------|-----------------|-------------|         elevens really fast
-----------------|-----------------|-------------|
-----------------|-----------------|-------------|
-----------------|-----------------|-------------|

Guitar 2
    X2
--------------------------------|---------------|
--------------------------------|---------------|
--------------------------------|---------------|  On fourth time don't palm mute
-5-5-5-5-5-5-5-5-7-7-7-7-9-9-9-9|-13-13-13-13---|
-5-5-5-5-5-5-5-5-7-7-7-7-9-9-9-9|-13-13-13-13---|
-5-5-5-5-5-5-5-5-7-7-7-7-9-9-9-9|-13-13-13-13---|
(pm---------------------------------------------|

Chorus
Guitar 1
   X4
------------------|
------------------|
-7-7-7-10-9--9b10-|
------------------|
------------------|
------------------|

Guitar 2
    X2
-----------------------------------------|
-----------------------------------------|
-----------------------------------------|
-5-5-5-5-5-7-7-7-7-7-4-4-4-4-4-5-5-5-5-5-|
-5-5-5-5-5-7-7-7-7-7-4-4-4-4-4-5-5-5-5-5-|
-5-5-5-5-5-7-7-7-7-7-4-4-4-4-4-5-5-5-5-5-|

Solo-ish thing

----------------------------5-9--------------------------------------------|
--------------------------------10--12-12-12-12\10-10-10-10-10/12-12-12-12-|
-9p7h9p7-5/7-7--7\5-5/7-7-7------------------------------------------------|
---------------------------------------------------------------------------|
---------------------------------------------------------------------------|
---------------------------------------------------------------------------|

---------------------------------------------------------------------|
-10-10-10-10\7-----------------------11h13--13-13-13-13-13-13-13-13--|
---------------7h9-9--7h9-9--9h11-11---------------------------------|
---------------------------------------------------------------------|
---------------------------------------------------------------------|
---------------------------------------------------------------------|

Bridge
Guitars 1&2

-----------------------------|
-----------------------------|
-----------------------------|
-5-55-7-777-3-33-55-5--------|
-5-55-7-777-3-33-55-5--------|
-5-55-7-777-3-33-55-5--------|

Ending Chorus
Guitar 1                         Repeat until end of song
-10-10-10-10-10-|
----------------|
----------------|
----------------|
----------------|
----------------|

Guitar 2
Same as regular chorus


Whole Song Layout
Intro
Verse
Pre-chorus
Chorus
Verse
Pre-Chorus
Chorus
Solo
Pre-chorus X2
Chorus
Bridge
Ending Chorus
            
Submit corrections

comments powered by Disqus
↑ Back to top | Flyleaf Tabs for All Around Me. Lyrics for acoustic guitar and electric guitar. Tablatures and chords are parodies/interpretations of the original songs. You may use it for private study, scholarship, research or language learning purposes only