» » »

Flyleaf, All Around Me Tabs (ver.5)

Artists:  A B C D E F G H I J K L M N O P Q R S T U V W X Y Z # 

All Around Me Tabs (ver.5)

Flyleaf Tabs
Rating:
5/5 (8 votes)
All Around Me lessons Tabs too difficult? Try these video lessons and learn fast
                This is my 1st tab I have posted on here.

intro

D-----------------------------------------|
a-----------------------------------------|
d-4---------------------------------------|
g--2----2---------------------------------|
b-----2-----------------------------------|
e----0---0--------------------------------|

riff 1
                                    repeat for chor 1X
D----------------------------------------------]-----------------------------|
a----------------------------------------------]-----------------------------|
d-4------------4v---------------------------4v-]-------9/0-------------------|
g--2-----2h4p2----4p2h4---------6-4-6-4-2h4----]-7/9-------------------------|
b-----2----------------2h3p2-------------------]-----7-----------------------|
e---0------------------------------------------]-----------------------------|


1st/2nd vers

D-----------------------------------------------------------------------------|
a-----------------------------------------------------------------------------|
d-----------------------------------------------------------------------------|
g---------------0h2------------------0h2------------4/6--6-6--6-6-------------|
b------------------2-2------------------2-2---0-0-0---------------------------|
e-5-4-0---0-0-0---------0-0-0-5-4-0--------0-0--------------------5-4-5/9-----|

D-------------------------------------------|
a-------------------------------------------|
d-------------------------------------------|
g------------------------------2---2----2---|
b---------------------------2p0-2---2-0--2--|
e---5-2-2-2-2-2-5-4-0--2p0------------------|

D--------------------------------------------------------------|
a--------------------------------------------------------------|
d--------------------------------------------------------------|
g-0h2-------------0h2------------------------------------------|
b----2-2--2----------2-2-2-------------------------------------|
e--------0-0-5-4-0------0-0-5-4-5-7-5--2-2-2-2-2-2-2-5-4-0-2p0-|

chor
D----------------------------------------------------------------|
a----------------------------------------------------------------|
d----------------------------------------------------------------|
g--------------(X4)-------------------------(riff 1)-------------|
b----------------------------------------------------------------|
e-0-4-2-4-----------4/7-7-7-7-7-7-7-7-7--------------------------|

3rd vers

D-----------------------------------------------------------------------------|
a-----------------------------------------------------------------------------|
d-------------------------------4---------------------------------------------|
g----------------6/3/6--2--2---2--2-------------------------------------------|
b-------5--------7/4/7--2----2------------------------------------------------|
e-2-5-2---2-2-2----------------------7-7-7-7-7-7-5-5-5-5-7-7-7-7-7-7-5-5-5-5--|

D-----------------------------------------|
a-----------------------------------------|
d-----------------------------------------|
g-----------------------------------------|
b----7-7-7-7--------7-5-7v----------------|
e7-5------------7-5-----------------------|


D-----------------------------------------------------------------------------|
a-----------------------------------------------------------------------------|
d-9h11-11---------------------------------------------------------------------|
g---------9h11-11-------------------------------------------------------------|
b-----------------9h11-12----12-12-12-----------------------------------------|
e-------------------------12--------------------------------------------------|

chor
            
Submit corrections

comments powered by Disqus
↑ Back to top | Flyleaf Tabs for All Around Me. Lyrics for acoustic guitar and electric guitar. Tablatures and chords are parodies/interpretations of the original songs. You may use it for private study, scholarship, research or language learning purposes only