» » »

Flyleaf, All Around Me Chords (ver.3)

Artists:  A B C D E F G H I J K L M N O P Q R S T U V W X Y Z # 

All Around Me Chords (ver.3)

Flyleaf Tabs
 Rating:
4.6/5 (11 votes)
All Around Me lessons Tabs too difficult? Try these video lessons and learn fast
                Im pretty sure this is accurate and its not too hard! 
please rate and comment 
=]



F#m = 244222
A = 577655   or 002220
C#m = x46654
C#add9 = x46644
E = 022100 

v = strum down
V = strum down heavier
^ = strum up 

[F#m-A-C#m* = intro pattern] 

 
  Intro :                                      

       (F#m)                 (A)                (C#m-C#add9-C#m) 
  
          v  v  ^             v  v  ^             v v ^ ^ ^ v ^ v ^
|---------2--2--2---|---------5--5--5---|---------4-4-4-4-4-4-4-4-4-|
|---------2--2--2---|---------5--5--5---|---------5-5-5-5-5-5-5-5-5-|
|---------2--2--2---|---------6--6--6---|---------6-6-5-5-5-6-6-6-6-|   (x2)
|---------4--4--4---|---------7--7--7---|-----6---6-6-6-6-6-6-6-6-6-|
|-----4---4--4--4---|-----7---7--7--7---|--4------4-4-4-4-4-4-4-4-6-|
|--2------2--2--2---|--5------5--5--5---|---------------------------|






Verse:

   F#m                 A
My hands are searching for you
   C#m                   F#m
My arms are outstretched towards you
   F#m           A
I feel you on my fingertips
    C#m                              F#m-A-C#m* 
My tongue dances behind my lips for you

      F#m         A       
This fire rising through my being
 C#m                            F#m--E
Burning I'm not used to seeing you



Refrain:
                               I'm alive
     a|-----------------------------------|
     e|-4-4-4-4-4-4-4-4--5-5-5-5--7-7-7-7-|


                           I'm alive
    a|--------------------------2-2-2-2-|
    e|-4-4-4-4-4-4-4-4--5-5-5-5-0-0-0-0-|


Chorus:

 F#m           A       
I can feel you all around me
 C#m            E
Thickening the air I'm breathing
 F#m            A            
Holding on to what I'm feeling
 C#m           E
Savoring this heart that's healing


Verse:

    F#m            A
My hands float up above me
     C#m             
And you whisper you love me
    F#m           A
And I begin to to fade
 C#m            E
Into our secret place

     F#m            A
The music makes me sway
     C#m       
The angels singing say
        F#m
We are alone with you
      A                          C#m
I am alone and they are too with you


   [Refrain]


Chorus:

 F#m           A       
I can feel you all around me
 C#m            E
Thickening the air I'm breathing
 F#m            A            
Holding on to what I'm feeling
 C#m           E
Savoring this heart that's healing

 
      F#m-A-C#m*
As I cry
               F#m-A-C#m*
The light is white 
   
           F#m-A-C#m*  
And I see you


Refrain:
                               I'm alive
     a|-----------------------------------|
     e|-4-4-4-4-4-4-4-4--5-5-5-5--7-7-7-7-|


                           I'm alive
     a|--------------------------2-2-2-2-|
     e|-4-4-4-4-4-4-4-4--5-5-5-5-0-0-0-0-|

   
                               I'm alive......................
     a|---------------------------------------------------5-5-5-5-5-5-5-5-|
     e|-4-4-4-4-4-4-4-4--5-5-5-5--7-7-7-7-4-4-4-4-4-4-4-4-5-5-5-5-5-5-5-5-|

   

      [Chorus]



Bridge:

 F#m
Take my hand I give it you
 A
Now you own me, all I am
 C#m                                    }  strumming: |: v v v v V v v v :|
You said you would never leave me     
  E
I believe you, I believe


     [Chorus]

END
            
Submit corrections

comments powered by Disqus
↑ Back to top | Flyleaf Chords for All Around Me. Lyrics for acoustic guitar and electric guitar. Tablatures and chords are parodies/interpretations of the original songs. You may use it for private study, scholarship, research or language learning purposes only