>
 >
All Around Me 1

All Around Me 1 Bass Tabs

Flyleaf - All Around Me 1 chords, tabs, tablatures, lyrics

Guitar lessons | Add/correct | Request | Top 50 tabs Artists:  A B C D E F G H I J K L M N O P Q R S T U V W X Y Z 0-9

All Around Me 1 Bass Tabs – Flyleaf

CD, Sheet music, Poster

Do you like All Around Me 1? Share with your friends now
Bass TabsBass Tabs v2Bass Tabs v3Bass Tabs v4ChordsChords v2Chords v3Chords v4Chords v5TabsTabs v2Tabs v3Tabs v4UkuleleUkulele v2
Bass Tab
Tuning: Standard EADG
Difficulty: Novice



The Bass follows the rhythm guitar pattern pretty much, playing the fundamental note of 
chords basically is all you got to do.

At some points I am not completely sure about the tab; however, it is much better than 
other bass tabs for this song and it sounds nice in my ears. If you disagree, feel free 
modify yourself.
There are some variations during the prechorus and verses, I didn't list them all. They 
to be played spontanous. ;)


Order:

Intro
Instrumental
Verse 1
Prechorus
Chorus
Verse 2
Prechorus 1
Chorus
Verse 3
Prechorus 2
Chorus
Bridge
Chorus


Intro:

G|--------------------------------7-7-7-7-7-7-7-7-7-7-7-9-9-9-9-9|
D|4-4-4-4-4-4-4-4-7-7-7-7-7-7-7-7--------------------------------|
A|---------------------------------------------------------------|
E|---------------------------------------------------------------|

          8x           8x               11x                5x


Instrumental:


G|-------------------------7-77~-------6~----7~-9~--|
D|4-44~----7-77-------------------------------------|
A|-----------------7-77~----------------------------|
E|--------------------------------------------------|

Listen to the song for the rhythm, it is similar to the chorus.

Verse 1:

Now we go an octave lower.

G|--------------------------------------------------------------|
D|--------------------------------------------------------------|
A|-------------------------------5-5-5-5-5-5-5-5-5-5-5-5-5-5-5-5|
E|2-2-2-2-2-2-2-2-0-0-0-0-0-0-0-0-------------------------------|

  My hands(...)   for(...)       My arms(...)

          8x           8x                       16x

G|--------------------------------------------------------------|
D|--------------------------------------------------------------|
A|-------------------------------5-5-5-5-5-5-5-5-5-5-5-5-5-5-5-5|
E|2-2-2-2-2-2-2-2-0-0-0-0-0-0-0-0-------------------------------|

  I feel(...)     finger(...)    My tongue(...)

          8x           8x                       16x

G|--------------------------------------------------------------|
D|---------------------------------------------------------4h5--|
A|-------------------------------5-5-5-5-5-5-5-5-5-5-5-5-5-----5|
E|2-2-2-2-2-2-2-2-0-0-0-0-0-0-0-0-------------------------------|

          8x           8x                       14x

G|--------------------------------------------------------------|
D|--------------------------------------------------------------|
A|-------------------------------5-5-5-5-5-5-5-5-5-5-5-5-5-5-5-5|
E|2-2-2-2-2-2-2-2-5-5-5-5-5-5-5-5-------------------------------|

  This(...)       through(...)   burning(...)

          8x           8x                       16x

G|-------------------------------|
D|-------------------------------|
A|-------------------------------|
E|2-2-2-2-2-2-2-2-4-4-4-4-4-4-4-4|

          8x           8x

Prechorus 1 (I'm alive...):


G|-------------------------------|
D|6-6-6-6-6-6-6-6-7-7-7-7-9-9-9-9|  (2x)
A|-------------------------------|
E|-------------------------------|

          8x           8x


G|7-7-7-7-7-7-7-7-7-7-7-7-777-7|
D|-----------------------------|
A|-----------------------------|
E|-----------------------------|

                16x

Chorus:

Now this can be a bit tricky, look at the text to follow the rhythm.

"I can feel you all around me
thickening the air I'm breathing
holding on to what I'm feeling
savoring this heart that's healing"


G|---------------------------|         |----------------------------|
D|44-4~----------------------|         |77-7~-----------------------|
A|---------------------------|         |----------------------------|
E|---------------------------|         |----------------------------|

  I	can	feel	you		all	a   -   round	me


G|77-7~----------------------|         |77-7~-----------66-6~--------|
D|---------------------------|         |-----------------------------|
A|---------------------------|         |-----------------------------|
E|---------------------------|         |-----------------------------|

  thick - e - ning	the	        air     I'm    breath  -  ing

G|--------------------------|           |----------------------------|
D|44-4~---------------------|           |77-7~-----------------------|
A|--------------------------|           |----------------------------|
E|--------------------------|           |----------------------------|

  Hold  -  ing	  on    to 	         what      I'm      feeling


G|--------------------------|           |66-6~-----------------------|
D|--------------------------|           |----------------------------|
A|77-7~---------------------|           |----------------------------|
E|--------------------------|           |----------------------------|

  Sa - vo - ring    this                 heart    that's    healing


G|--------------------------|
D|7~------------------------|
A|--------------------------|
E|--------------------------|

 (Breakdown)


Verse 2:


G|--------------------------------------------------------------|
D|--------------------------------------------------------------|
A|-------------------------------5-5-5-5-5-5-5-5-5-5-5-5-5-5-5-5|
E|2-2-2-2-2-2-2-2-0-0-0-0-0-0-0-0-------------------------------|

  My hands(...)   above(...)     you(...)

          8x           8x                       16x


G|--------------------------------------------------------------|
D|-----------------------------------------------------------4h5|
A|-------------------------------5-5-5-5-5-5-5-5-5-5-5-5-5-5----|
E|2-2-2-2-2-2-2-2-0-0-0-0-0-0-0-0-------------------------------|

  I begin(...)    fade(...)      Into (...)

          8x           8x                       14x


G|--------------------------------------------------------------|
D|--------------------------------------------------------------|
A|-------------------------------5-5-5-5-5-5-5-5-5-5-5-5-5-5-5-5|
E|2-2-2-2-2-2-2-2-0-0-0-0-0-0-0-0-------------------------------|

  music(...)      sway(...)      the angels(...)

          8x           8x                       16x


G|--------------------------------------------------------------|
D|--------------------------------------------------------------|
A|-------------------------------5-5-5-5-5-5-5-5-5-5-5-5-5-5-5-5|
E|2-2-2-2-2-2-2-2-0-0-0-0-0-0-0-0-------------------------------|

  alone(...)                     alone(...)

          8x           8x                       16x

Verse 3:


G|-----------------------------------------------------------4--|
D|---------------------------------------------------------4---4|
A|------------------5~--------------------------------5~--------|
E|2-2~------5~-------------------2-22-2~------5~----------------|

  And(...)  cry(...)             light(...)


G|------------------------------------|
D|------------------------------------|
A|-------------------5-5-5-5-5-5-5-3--|
E|22-2-2----55-5-5-5-----------------4|

  you~~~~~~~~~~~~~~~~~~~~~~~~~~~~~~~~~

Prechorus 2:

Like Prechorus 1, just play the first part three times instead of two.

Bridge:

This is sung pretty fast so the text will not help you vermy much, again listen to the 
if you have problems.

G|-----------------------|
D|4---44--7---787--------|
A|----------------5-55-5~| (the rhythm guitar doesn't play this final note,
E|-----------------------|  but continues with something else. You don't.)



This was a lot of work and the first song I tabbed, hope you esteem that...
Again, this is not completely what is played, there are some minor variations, but I 
he played them spontanously, and so should you. In addition, it would have been too much 
to list. ;)


Enjoy and please rate!





Comments


Popular Flyleaf tabs & chords
Amy Says Chords
Fully Alive 2 Chords
Im Sorry Chords
Sorrow 2 Chords
Cassie 7 Tabs
Fully Alive Tabs
Fully Alive 2 Tabs
Great Love Tabs
Justice And Mercy Tabs
Red Sam Tabs


Song lyrics



↑ Back to top | Tablatures and chords are parodies/interpretations of the original songs. You may use it for private study, scholarship, research or language learning purposes only
© 2014 AZChords.com Contact us | Privacy policy | DMCA | Add/correct tabs | Request tabs | Top 50 tabs