>
 >
Again 3

Again 3 Guitar Tabs

Flyleaf - Again 3 chords, tabs, tablatures, lyrics

Guitar lessons | Add/correct | Request | Top 50 tabs Artists:  A B C D E F G H I J K L M N O P Q R S T U V W X Y Z 0-9

Again 3 Guitar Tabs – Flyleaf

CD, Sheet music, Poster

Do you like Again 3? Share with your friends now
Bass TabsBass Tabs v2Bass Tabs v3ChordsChords v2Chords v3Chords v4Chords v5Drum TabsTabsTabs v2Tabs v3Tabs v4Tabs v5UkuleleUkulele v2
-------------------------------------------------------------------------------
-------------------------------------------------------------------------------

**UPDATE** - I've finally tweaked the bit in the verse that was wrong for guitar 
2. Hopefully this should now be much better!

I suspect that this song is actually played with guitars tuned to CGCFAD, 
but this still works, and if your bassist is playing a 5 string then they can 
get that low C in the last few choruses.

INTRO
Guitar 2:
   1  2  3  4  5  6   1  2  3  4  5  6  
E:/15------/13------|------------------|
B:------------------|/15------/13------|
G:------------------|------------------|
D:------------------|------------------|
A:------------------|------------------|
D:------------------|------------------|x3

   1  2  3  4  5  6   1  2  3  4  5  6  
E:/15------/18------|/20-------/22-----|
B:------------------|------------------|
G:------------------|------------------|
D:------------------|------------------|
A:------------------|------------------|
D:------------------|------------------|

Guitar 1 [in after 2 bars]
   1 + 2 + 3 + 4 + 5 + 6 + 1 + 2 + 3 + 4 + 5 + 6 +
E:------------------------|------------------------|
B:------------------------|------------------------|
G:------------------------|------------------------|
D:-5-5-5-5-5-5-8-8-8-8-8-8|3-3-3-3-3-3-3-3-3-3-3-3-|
A:-5-5-5-5-5-5-8-8-8-8-8-8|3-3-3-3-3-3-3-3-3-3-3-3-|
D:-5-5-5-5-5-5-8-8-8-8-8-8|3-3-3-3-3-3-3-3-3-3-3-3-|x2



VERSE 1
Guitar 1:
   1  2  3  4  5  6   1  2 + 3 + 4 + 5  6  
E:------------------|---------------------|
B:------------------|----6-6-----6/8-8--8-|
G:------------------|---------------------|
D:------------------|----3-3-----3/5-5--5-|
A:------------------|---------------------|
D:------------------|---------------------|

   1  2  3  4  5  6   1  2 + 3 + 4  +  5  6  
E:------------------|------------------------|
B:-8\---------------|----1313----13/15-15-15-|
G:------------------|------------------------|
D:-5\---------------|----1010----10/12-12-12-|
A:------------------|------------------------|
D:------------------|------------------------|

   1  2  3  4  5  6   1  2 + 3 + 4 + 5  6  
E:------------------|---------------------|
B:-15\--------------|----6-6-----6/8-8--8-|
G:------------------|---------------------|
D:-12\--------------|----3-3-----3/5-5--5-|
A:------------------|---------------------|
D:------------------|---------------------|

   1  2  3  4  5  6   1  2 + 3 + 4  +  5  6  
E:------------------|------------------------|
B:-8\---------------|----1313----13/15-15-15-|
G:------------------|------------------------|
D:-5\---------------|----1010----10/12-12-12-|
A:------------------|------------------------|
D:------------------|------------------------|

   1  2  3  4  5  6  
E:------------------|
B:-15---------------|
G:------------------|
D:-12---------------|
A:------------------|
D:------------------|


Guitar 2:
   1 + 2 + 3 + 4 + 5 + 6 + 1 + 2 + 3 + 4 + 5 + 6 + 
E:(22)-------------6h8p6h8|-----------------------|
B:------------------------|-----------------------|
G:------------------------|----5-5---5-----5-5---5|
D:------------------------|-----------------------|
A:------------------------|-----------------------|
D:------------------------|-----------------------|


   1 + 2 + 3 + 4 + 5 + 6 + 1 + 2 + 3 + 4 + 5 + 6 + 
E:-----------------6h8p6h8|-----------------------|
B:------------------------|-----------------------|
G:-----5-5---5------------|----5-5---5-----5------|
D:------------------------|-----------------------|
A:------------------------|-----------------------|
D:------------------------|-----------------------|

   1 + 2 + 3 + 4 + 5 + 6 + 1 + 2 + 3 + 4 + 5 + 6 + 
E:------------------------|-----------------------|
B:-6h8p6h8----------------|-----------------------|
G:-------------5h7p5h7----|-----------------------|
D:------------------------|8---8-8-----8---8-8----|
A:------------------------|--------8-----------8--|
D:------------------------|-----------------------|

   1 + 2 + 3 + 4 + 5 + 6 + 1 + 2 + 3 + 4 + 5 + 6 + 
E:------------------------|-----------------------|
B:-6-6-6-6-6--------------|-----------------------|
G:-----------5-7-7-7-7-7-7|-----------------------|
D:------------------------|8-8-8-8-8-8-8-8-8-8-8-8|
A:------------------------|-----------------------|
D:------------------------|-----------------------|

   1 + 2 + 3 + 4 + 5 + 6 + 
E:-15---------------------|
B:------------------------|
G:------------------------|
D:------------------------|
A:------------------------|
D:------------------------|



CHORUS 1
Guitar 1:
   1 + 2 + 3 + 4 + 5 + 6 + 1 + 2 + 3 + 4 + 5 + 6 +
E:------------------------|-----------------------|
B:------------------------|-----------------------|
G:------------------------|-----------------------|
D:-5-5-5-5-5-5-8-8-8-8-8-8|3-3-3-3-3-3-3-3-3-3-3-3|
A:-5-5-5-5-5-5-8-8-8-8-8-8|3-3-3-3-3-3-3-3-3-3-3-3|
D:-5-5-5-5-5-5-8-8-8-8-8-8|3-3-3-3-3-3-3-3-3-3-3-3|x2

   1 + 2 + 3 + 4 + 5 + 6 + 1 + 2 + 3 + 4 + 5 + 6 + 
E:------------------------|-----------------------|
B:------------------------|-----------------------|
G:------------------------|-----------------------|
D:-1-1-1-1-1-1-5-5-5-5-5-5|8-8-8-8-8-8-3-3-3-3-3-3|
A:-1-1-1-1-1-1-5-5-5-5-5-5|8-8-8-8-8-8-3-3-3-3-3-3|
D:-1-1-1-1-1-1-5-5-5-5-5-5|8-8-8-8-8-8-3-3-3-3-3-3|

   1 + 2 + 3 + 4 + 5 + 6 + 1 + 2 + 3 + 4 + 5 + 6 + 
E:------------------------|-----------------------|
B:------------------------|-----------------------|
G:------------------------|-----------------------|
D:-1-1-1-1-1-1-5-5-5-5-5-5|3-3-3-3-3-3-3-3-3-3-3-3|
A:-1-1-1-1-1-1-5-5-5-5-5-5|3-3-3-3-3-3-3-3-3-3-3-3|
D:-1-1-1-1-1-1-5-5-5-5-5-5|3-3-3-3-3-3-3-3-3-3-3-3|

Guitar 2:
   1  2  3  4  5  6   1  2  3  4  5  6  
E:/15------/13------|------------------|
B:------------------|/15------/13------|
G:------------------|------------------|
D:------------------|------------------|
A:------------------|------------------|
D:------------------|------------------|x3

   1  2  3  4  5  6   1  2  3  4  5  6  
E:/15------/18------|/20-------/22-----|
B:------------------|------------------|
G:------------------|------------------|
D:------------------|------------------|
A:------------------|------------------|
D:------------------|------------------|



VERSE 2: 
   1  2  3  4  5  6   1  2 + 3 + 4 + 5  6  
E:------------------|---------------------|
B:------------------|----6-6-----6/8-8--8-|
G:------------------|---------------------|
D:------------------|----3-3-----3/5-5--5-|
A:------------------|---------------------|
D:------------------|---------------------|

   1  2  3  4  5  6   1  2 + 3 + 4  +  5  6  
E:------------------|------------------------|
B:-8\---------------|----1313----13/15-15-15-|
G:------------------|------------------------|
D:-5\---------------|----1010----10/12-12-12-|
A:------------------|------------------------|
D:------------------|------------------------|

   1  2  3  4  5  6   1  2 + 3 + 4 + 5  6  
E:------------------|---------------------|
B:-15\--------------|----6-6-----6/8-8--8-|
G:------------------|---------------------|
D:-12\--------------|----3-3-----3/5-5--5-|
A:------------------|---------------------|
D:------------------|---------------------|

   1  + 2 +  3 +  4 + 5 + 6 + 
E:-10p8-10-------------------|
B:--------10/12--------------|
G:-------------10/12----12---|
D:---------------------------|
A:---------------------------|
D:---------------------------|x3

Guitar 2:
   1 + 2 + 3 + 4 + 5 + 6 + 1 + 2 + 3 + 4 + 5 + 6 + 
E:(22)-------------6h8p6h8|-----------------------|
B:------------------------|-----------------------|
G:------------------------|----5-5---5-----5-5---5|
D:------------------------|-----------------------|
A:------------------------|-----------------------|
D:------------------------|-----------------------|


   1 + 2 + 3 + 4 + 5 + 6 + 1 + 2 + 3 + 4 + 5 + 6 + 
E:-----------------6h8p6h8|-----------------------|
B:------------------------|-----------------------|
G:-----5-5---5------------|----5-5---5-----5------|
D:------------------------|-----------------------|
A:------------------------|-----------------------|
D:------------------------|-----------------------|

   1 + 2 + 3 + 4 + 5 + 6 + 1 + 2 + 3 + 4 + 5 + 6 + 
E:------------------------|-----------------------|
B:-6h8p6h8----------------|-----------------------|
G:-------------5h7p5h7----|-----------------------|
D:------------------------|8---8-8-----8---8-8----|
A:------------------------|--------8-----------8--|
D:------------------------|-----------------------|

   1 + 2 + 3 + 4 + 5 + 6 + 1 + 2 + 3 + 4 + 5 + 6 + 
E:------------------------|-----------------------|
B:-8-6-6-6-6--------------|-----------------------|
G:-----------5-7-7-7-7-7-7|-----------------------|
D:------------------------|8-8-8-8-8-8-108-8-8-8-8|
A:------------------------|-----------------------|
D:------------------------|-----------------------|

   1 + 2 + 3 + 4 + 5 + 6 + 
E:-------------------------|
B:-------------------------|
G:-101010101010101010101010| [10, not 1 0 !!]
D:-------------------------|
A:-------------------------|
D:-------------------------|


BRIDGE
Guitar 1
   1 + 2 + 3 + 4 + 5 + 6 + 1 + 2 + 3 + 4 + 5 + 6 + 
E:------------------------|-----------------------|
B:------------------------|-----------------------|
G:------------------------|-----------------------|
D:-0---0---0---0---0---0--|5---5---5---5---5---5--|
A:-0---0---0---0---0---0--|5---5---5---5---5---5--|
D:-0---0---0---0---0---0--|5---5---5---5---5---5--|

   1 + 2 + 3 + 4 + 5 + 6 + 1 + 2 + 3 + 4 + 5 + 6 + 
E:------------------------|-----------------------|
B:------------------------|-----------------------|
G:------------------------|-----------------------|
D:-8-8-8-8-8-8-8-8-8-8-8-8|8-8-8-8-8-8-8-8-8-8-8-8|
A:-8-8-8-8-8-8-8-8-8-8-8-8|8-8-8-8-8-8-8-8-8-8-8-8|
D:-8-8-8-8-8-8-8-8-8-8-8-8|8-8-8-8-8-8-8-8-8-8-8-8|

   1 + 2 + 3 + 4 + 5 + 6 + 1 + 2 + 3 + 4 + 5 + 6 + 
E:------------------------|-----------------------|
B:------------------------|-----------------------|
G:------------------------|-----------------------|
D:-0---0---0---0---0---0--|5---5---5---5---5---5--|
A:-0---0---0---0---0---0--|5---5---5---5---5---5--|
D:-0---0---0---0---0---0--|5---5---5---5---5---5--|

   1 + 2 + 3 + 4 + 5 + 6 + 1 + 2 + 3 + 4 + 5 + 6 + 
E:------------------------|-----------------------|
B:------------------------|-----------------------|
G:------------------------|-----------------------|
D:-8-8-8-8-8-8-8-8-8-8-8-8|-----------------------|
A:-8-8-8-8-8-8-8-8-8-8-8-8|-----------------------|
D:-8-8-8-8-8-8-8-8-8-8-8-8|-----------------------|

Guitar 2:
   1 + 2 + 3 + 4 + 5 + 6 + 1 + 2 + 3 + 4 + 5 + 6 + 
E:------------------------|-----------------------|
B:------------------------|-----------------------|
G:------------------------|-----------------------|
D:------------------------|-----------------------|
A:------------------------|-----------------------|
D:------------------------|-----------------------|


   1 + 2 + 3 + 4 + 5 + 6 + 1 + 2 + 3 + 4 + 5 + 6 + 
E:-6-6-6-6-6-6-5-5-5-5-5-5|3-3-3-3-3-3-5-5-5-5-5-5|
B:-6-6-6-6-6-6-6-6-6-6-6-6|6-6-6-6-6-6-6-6-6-6-6-6|
G:------------------------|-----------------------|
D:------------------------|-----------------------|
A:------------------------|-----------------------|
D:------------------------|-----------------------|

   1 + 2 + 3 + 4 + 5 + 6 + 1 + 2 + 3 + 4 + 5 + 6 + 
E:------------------------|-----------------------|
B:------------------------|-----------------------|
G:------------------------|-----------------------|
D:------------------------|-----------------------|
A:------------------------|-----------------------|
D:------------------------|-----------------------|


   1 + 2 + 3 + 4 + 5 + 6 +  1 + 2 + 3 + 4 + 5 + 6 + 
E:-6-6-6-6-6-6-5-5-5-5-5-5|/22---------------------|
B:-6-6-6-6-6-6-6-6-6-6-6-6|------------------------|
G:------------------------|------------------------|
D:------------------------|------------------------|
A:------------------------|------------------------|
D:------------------------|------------------------|  


3 CHORUSES to end:
FIRST & SECOND CHORUSES:
Guitar 1
   1 + 2 + 3 + 4 + 5 + 6 + 1 + 2 + 3 + 4 + 5 + 6 +
E:------------------------|-----------------------|
B:------------------------|-----------------------|
G:------------------------|-----------------------|
D:-5-5-5-5-5-5-8-8-8-8-8-8|3-3-3-3-3-3-3-3-3-3-3-3|
A:-5-5-5-5-5-5-8-8-8-8-8-8|3-3-3-3-3-3-3-3-3-3-3-3|
D:-5-5-5-5-5-5-8-8-8-8-8-8|3-3-3-3-3-3-3-3-3-3-3-3|x2

   1 + 2 + 3 + 4 + 5 + 6 + 1 + 2 + 3 + 4 + 5 + 6 + 
E:------------------------|-----------------------|
B:------------------------|-----------------------|
G:------------------------|-----------------------|
D:-1-1-1-1-1-1-5-5-5-5-5-5|8-8-8-8-8-8-3-3-3-3-3-3|
A:-1-1-1-1-1-1-5-5-5-5-5-5|8-8-8-8-8-8-3-3-3-3-3-3|
D:-1-1-1-1-1-1-5-5-5-5-5-5|8-8-8-8-8-8-3-3-3-3-3-3|

   1 + 2 + 3 + 4 + 5 + 6 + 1 + 2 + 3 + 4 + 5 + 6 + 
E:------------------------|-----------------------|
B:------------------------|-----------------------|
G:------------------------|5-5-5-5-5-5-5-5-5-5-5-5|
D:-1-1-1-1-1-1-5-5-5-5-5-5|5-5-5-5-5-5-5-5-5-5-5-5|
A:-1-1-1-1-1-1-5-5-5-5-5-5|3-3-3-3-3-3-3-3-3-3-3-3|
D:-1-1-1-1-1-1-5-5-5-5-5-5|-----------------------|

Guitar 2:
   1  2  3  4  5  6   1  2  3  4  5  6  
E:/15------/13------|------------------|
B:------------------|/15------/13------|
G:------------------|------------------|
D:------------------|------------------|
A:------------------|------------------|
D:------------------|------------------|x3

   1  2  3  4  5  6   1  2  3  4  5  6  
E:/15------/18------|/20-------/22-----|
B:------------------|------------------|
G:------------------|------------------|
D:------------------|------------------|
A:------------------|------------------|
D:------------------|------------------|

THIRD CHORUS [half time drums]:
Guitar 1
   1 + 2 + 3 + 4 + 5 + 6 + 1 + 2 + 3 + 4 + 5 + 6 +
E:------------------------|-----------------------|
B:------------------------|-----------------------|
G:------------------------|-----------------------|
D:-5-5-5-5-5-5-8-8-8-8-8-8|3-3-3-3-3-3-3-3-3-3-3-3|
A:-5-5-5-5-5-5-8-8-8-8-8-8|3-3-3-3-3-3-3-3-3-3-3-3|
D:-5-5-5-5-5-5-8-8-8-8-8-8|3-3-3-3-3-3-3-3-3-3-3-3|x2

   1 + 2 + 3 + 4 + 5 + 6 + 1 + 2 + 3 + 4 + 5 + 6 + 
E:------------------------|-----------------------|
B:------------------------|-----------------------|
G:------------------------|-----------------------|
D:-1-1-1-1-1-1-5-5-5-5-5-5|8-8-8-8-8-8-3-3-3-3-3-3|
A:-1-1-1-1-1-1-5-5-5-5-5-5|8-8-8-8-8-8-3-3-3-3-3-3|
D:-1-1-1-1-1-1-5-5-5-5-5-5|8-8-8-8-8-8-3-3-3-3-3-3|

   1 + 2 + 3 + 4 + 5 + 6 + 1 + 2 + 3 + 4 + 5 + 6 + 
E:------------------------|-----------------------|
B:------------------------|-----------------------|
G:------------------------|5----------------------|
D:-1-1-1-1-1-1-5-5-5-5-5-5|5----------------------|
A:-1-1-1-1-1-1-5-5-5-5-5-5|3----------------------|
D:-1-1-1-1-1-1-5-5-5-5-5-5|-----------------------|

Guitar 2:
   1  2  3  4  5  6   1  2  3  4  5  6  
E:-13/15----18------|-20-------15\13/15\|
B:------------------|-------------------|
G:------------------|-------------------|
D:------------------|-------------------|
A:------------------|-------------------|
D:------------------|-------------------|x2

   1  2  3  4  5  6   1  2  3  4  5  6  
E:-13/15----18\13---|-15/20----15\13/15\|
B:------------------|-------------------|
G:------------------|-------------------|
D:------------------|-------------------|
A:------------------|-------------------|
D:------------------|-------------------|


   1  2  3  4  5  6   1  2  3  4  5  6  
E:-13/15----18------|-20---------------|
B:------------------|------------------|
G:------------------|------------------|
D:------------------|------------------|
A:------------------|------------------|
D:------------------|------------------|





Comments


Popular Flyleaf tabs & chords
So I Thought 4 Bass Tabs
Chasm Chords
Saving Grace 1 Chords
Set Apart This Dream Chords
Broken Wings 2 Tabs
Call You Out Tabs
Missing Tabs
Perfect 1 Tabs
There For You 6 Tabs
Stay Faraway So Close Ukulele


Song lyrics



↑ Back to top | Tablatures and chords are parodies/interpretations of the original songs. You may use it for private study, scholarship, research or language learning purposes only
© 2014 AZChords.com Contact us | Privacy policy | DMCA | Add/correct tabs | Request tabs | Top 50 tabs