>
 >
Again 2

Again 2 Guitar Tabs

Flyleaf - Again 2 chords, tabs, tablatures, lyrics

Guitar lessons | Add/correct | Request | Top 50 tabs Artists:  A B C D E F G H I J K L M N O P Q R S T U V W X Y Z 0-9

Again 2 Guitar Tabs – Flyleaf

CD, Sheet music, Poster

Do you like Again 2? Share with your friends now
Bass TabsBass Tabs v2Bass Tabs v3ChordsChords v2Chords v3Chords v4Chords v5Drum TabsTabsTabs v2Tabs v3Tabs v4Tabs v5UkuleleUkulele v2
-----------------------------------------------------
                  Again - Flyleaf
-----------------------------------------------------

Tuning: Drop D

guitar 1: left
guitar 2: right


Intro     both guitars
e|----------------------------------------------|
B|----------------------------------------------|
G|------------------101010101010101010101010----|
D|---555555-888888--101010101010101010101010----|
A|---555555-888888--8-8-8-8-8-8-8-8-8-8-8-8-----|
D|---555555-888888------------------------------|

verse
guitar 1   0:22
e|------------------------------------|
B|---------------------1313-1313/15---|
G|---555-5/7--7\\------1212-1212/14---|x2
D|---555-5/7--7\\---------------------|
A|------------------------------------|
D|------------------------------------|
guitar 2   0:19
e|-------------------------------------|
B|-------------------------------------|
G|--7-7-10/12\10/12~----55-55----------|x2
D|----------------------55-55----------|
A|-------------------------------------|
D|-------------------------------------|
guitar 2   0:28
e|------------------------------------|
B|------------------------------------|
G|---10/12-12-12--5/7-777-------------|
D|------------------------8-8888------|
A|-------------------------------8----|
D|------------------------------------|
guitar 2   0:33
e|----------------------------------------------|
B|----------------------------------------------|
G|--10/12-12-12-5/7-777-------------------------|
D|----------------------8-888888888/10101010----|
A|----------------------------------------------|
D|----------------------------------------------|

chorus    both guitars
e|----------------------------------------------|
B|----------------------------------------------|
G|------------------101010101010101010101010----|x2
D|---555555-888888--101010101010101010101010----|
A|---555555-888888--8-8-8-8-8-8-8-8-8-8-8-8-----|
D|---555555-888888------------------------------|
  "only surrender will help you now"
e|---------------------------------|
B|---------------------------------|
G|---------------------------------|x1
D|---111111-555555-888888-333333---|
A|---111111-555555-888888-333333---|
D|---111111-555555-888888-333333---|

e|---------------------------------|
B|---------------------------------|
G|---------------------------------|x1
D|---111111-555555-333333333333----|
A|---111111-555555-333333333333----|
D|---111111-555555-333333333333----|

Repeat verse and chorus

Bridge
guitar 1
e|--------------------------------------------|
B|--------------------------------------------|
G|-----------------101010101010101010101010---|
D|---000000-555555-8-8-8-8-8-8-8-8-8-8-8-8----|
A|---000000-555555-8-8-8-8-8-8-8-8-8-8-8-8----|
D|---000000-555555-8-8-8-8-8-8-8-8-8-8-8-8----|
guitar 2
e|---------------------------------------------------------|
B|-------------------11-11-11-10-10-10----------10-10-10---|
G|-------------------------------------12-12-12------------|
D|---000000-555555-----------------------------------------|
A|---000000-555555-----------------------------------------|
D|---000000-555555-----------------------------------------|

guitar 1
e|--------------------------------|
B|--------------------------------|
G|-----------------101010101010---|
D|---000000-555555-8-8-8-8-8-8----|
A|---000000-555555-8-8-8-8-8-8----|
D|---000000-555555-8-8-8-8-8-8----|
guitar 2
e|-------------------------------------22~-------|
B|-------------------11-11-11-10-10-10-----------|
G|-----------------------------------------------|
D|---000000-555555-------------------------------|
A|---000000-555555-------------------------------|
D|---000000-555555-------------------------------|


Repeat Chorus

Ending chorus is a little different, goes like this
e|---------------------------------------------|
B|---------------------------------------------|
G|-----------------101010101010101010101010----|x2
D|---555555-888888-101010101010101010101010----|
A|---555555-888888-8-8-8-8-8-8-8-8-8-8-8-8-----|
D|---555555-888888-----------------------------|

e|-----------------------------------------------------------------------|
B|-----------------------------------------------------------------------|
G|-----------------------------------------------------------------------|
D|---111111-555555-888888-333333-111111-555555-101010101010101010101010--|
A|---111111-555555-888888-333333-111111-555555-101010101010101010101010--|
D|---111111-555555-888888-333333-111111-555555-101010101010101010101010--|

that's pretty much it.


| /  slide up
| \  slide down
| h  hammer-on
| p  pull-off
| ~  vibrato
| +  harmonic
| x  Mute note
==================================================





Comments


Popular Flyleaf tabs & chords
Again Bass Tabs
All Around Me 3 Bass Tabs
Cassie 7 Bass Tabs
Perfect 3 Bass Tabs
Stay Faraway So Close Chords
Fully Alive 7 Tabs
There For You Intro Tabs
Christmas Song Ukulele
Tiny Heart Ukulele
Treasure Ukulele


Song lyrics



↑ Back to top | Tablatures and chords are parodies/interpretations of the original songs. You may use it for private study, scholarship, research or language learning purposes only
© 2014 AZChords.com Contact us | Privacy policy | DMCA | Add/correct tabs | Request tabs | Top 50 tabs