» » »

Flyleaf, Again Bass tabs (ver.3)

Artists:  A B C D E F G H I J K L M N O P Q R S T U V W X Y Z # 

Again Bass tabs (ver.3)

Flyleaf Tabs
Rating:
1/5 (2 votes)
Again lessons Tabs too difficult? Try these video lessons and learn fast
                Again by Flyleaf

Intro
G|------------------------------------------------------------|
D|------------------------------------------------------------|
A|------------------------------------------------------------|
E|-3-3-3-3-3-3-6-6-6-6-6-6-13-13-13-13-13-13-13-13-13-13-13-13|
B|------------------------------------------------------------| x3

Play this on the 4th pass of the Intro
G|------------------------------------------------------------|
D|------------------------------------------------------------|
A|------------------------------------------------------------|
E|-3-3-3-3-3-3-6-6-6-6-6-6-13-13-13-13-13-13-13-13-13-13h15p13|
B|------------------------------------------------------------|


Verse 
"I love the way that your heart breaks"
G|------------------------------------------------------------|
D|------------------------------------------------------------|
A|------------------------------------------------------------|
E|-3-3-3-3-3-3----6-6-6-6-6-6----1---1-1-1-1-1h3p1-1---1------|
B|------------------------------------------------------------|

"With every injustice and deadly fate"
G|------------------------------------------------------------|
D|------------------------------------------------------------|
A|------------------------------------------------------------|
E|-3-3-3-3-3-3----6-6-6-6-6-6----1---1-1-1-1-1h3p1-1---1------|
B|---------------------------------------------------3--------|

"Praying it all be new"
G|------------------------------------------------------------|
D|------------------------------------------------------------|
A|------------------------------------------------------------|
E|-3-3-3-3-3-3----6-6-6-6-6-6----1---1-1-1-1-1h3p1-1---1------|
B|------------------------------------------------------------|

"And living like it all depends on you"
G|---------------------------------------------------------------|
D|---------------------------------------------------------------|
A|---------------------------------------------------------------|
E|-3-3-3-3-3-3----6-6-6-6-6-6----1---1-1-1-1-1h3p1-1-1-1h3p1-1-1-|
B|---------------------------------------------------------------| 


Chorus
"Here you are down on your knees again"
G|------------------------------------------------------------|
D|------------------------------------------------------------|
A|------------------------------------------------------------|
E|-3-3-3-3-3-3-6-6-6-6-6-6-13-13-13-13-13-13-13-13-13-13-13-13|
B|------------------------------------------------------------|

"Trying to forget to breathe again"
G|------------------------------------------------------------|
D|------------------------------------------------------------|
A|------------------------------------------------------------|
E|-3-3-3-3-3-3-6-6-6-6-6-6-13-13-13-13-13-13-13-13-13-13h15p13|
B|------------------------------------------------------------|

"And only surrender will help you now"
G|---------------------------------------------------|
D|---------------------------------------------------|
A|---------------------------------------------------|
E|--------------6---6-6-6-6---1---1-1-1-1-1-1-1-1-1-1|
B|-4---4-4-4-4---------------------------------------|

"I love you please see and believe again"
G|----------------------------------------------------------|
D|----------------------------------------------------------|
A|----------------------------------------------------------|
E|--3---3-3-3-3--6--6-6-6-6---1---1-1-1-1/13---13-13-13-13--|
B|----------------------------------------------------------|


Verse
"I love that your never satisfied"
G|------------------------------------------------------------|
D|------------------------------------------------------------|
A|------------------------------------------------------------|
E|-3-3-3-3-3-3----6-6-6-6-6-6----1---1-1-1-1-1h3p1-1---1------|
B|------------------------------------------------------------|

"With face value wisdom and happy lies"
G|------------------------------------------------------------|
D|------------------------------------------------------------|
A|------------------------------------------------------------|
E|-3-3-3-3-3-3----6-6-6-6-6-6----1---1-1-1-1-1h3p1-1---1------|
B|---------------------------------------------------3--------|

"You take what they say, go back and cry"
G|------------------------------------------------------------|
D|------------------------------------------------------------|
A|------------------------------------------------------------|
E|-3-3-3-3-3-3----6-6-6-6-6-6----1---1-1-1-1-1h3p1-1---1------|
B|------------------------------------------------------------|

"Your so close to me that you nearly died"
G|---------------------------------------------------------------|
D|---------------------------------------------------------------|
A|---------------------------------------------------------------|
E|-3-3-3-3-3-3----6-6-6-6-6-6----1---1-1-1-1-1h3p1-1-1-1h3p1-1-1-|
B|---------------------------------------------------------------| 


Chorus
"Here you are down on your knees again"
G|------------------------------------------------------------|
D|------------------------------------------------------------|
A|------------------------------------------------------------|
E|-3-3-3-3-3-3-6-6-6-6-6-6-13-13-13-13-13-13-13-13-13-13-13-13|
B|------------------------------------------------------------|

"Trying to forget to breathe again"
G|------------------------------------------------------------|
D|------------------------------------------------------------|
A|------------------------------------------------------------|
E|-3-3-3-3-3-3-6-6-6-6-6-6-13-13-13-13-13-13-13-13-13-13h15p13|
B|------------------------------------------------------------|

"And only surrender will help you now"
G|---------------------------------------------------|
D|---------------------------------------------------|
A|---------------------------------------------------|
E|--------------6---6-6-6-6---1---1-1-1-1-1-1-1-1-1-1|
B|-4---4-4-4-4---------------------------------------|

"I love you please see and believe again"
G|----------------------------------------------------------|
D|----------------------------------------------------------|
A|----------------------------------------------------------|
E|--3---3-3-3-3--6--6-6-6-6---1---1-1-1-1/13---13-13-13-13--|
B|----------------------------------------------------------|


Bridge
"They don't have to understand you, be still"
G|-----------------------------------------------------|
D|-----------------------------------------------------|
A|-----------------------------------------------------|
E|---------------3--3-3-3-3---6-6-6-6-6-6-6-6-6-6-6-6--|
B|--3--3-3-3-3-----------------------------------------|

"Wait and know I understand you, be still"
G|------------------------------------------|
D|------------------------------------------|
A|------------------------------------------|
E|---------------3--3-3-3-3---6-6-6-6-6-6~-x|
B|--3--3-3-3-3------------------------------|

"Be still!"


Chorus
"Here you are down on your knees again"
G|------------------------------------------------------------|
D|------------------------------------------------------------|
A|------------------------------------------------------------|
E|-3-3-3-3-3-3-6-6-6-6-6-6-13-13-13-13-13-13-13-13-13-13-13-13|
B|------------------------------------------------------------|

"Trying to forget to breathe again"
G|------------------------------------------------------------|
D|------------------------------------------------------------|
A|------------------------------------------------------------|
E|-3-3-3-3-3-3-6-6-6-6-6-6-13-13-13-13-13-13-13-13-13-13h15p13|
B|------------------------------------------------------------|

"And only surrender will help you now"
G|---------------------------------------------------|
D|---------------------------------------------------|
A|---------------------------------------------------|
E|--------------6---6-6-6-6---1---1-1-1-1-1-1-1-1-1-1|
B|-4---4-4-4-4---------------------------------------|

"The floodgates are breaking and pulling out"
G|---------------------------------------------------------------|
D|---------------------------------------------------------------|
A|---------------------------------------------------------------|
E|--3---3-3-3-3--6--6-6-6-6-1/13---13-13-13-13---13---13-13-13-13|
B|---------------------------------------------------------------|

"Here you are down on your knees again"
G|------------------------------------------------------------|
D|------------------------------------------------------------|
A|------------------------------------------------------------|
E|-3-3-3-3-3-3-6-6-6-6-6-6-13-13-13-13-13-13-13-13-13-13-13-13|
B|------------------------------------------------------------|

"Trying to forget to breathe"
G|--------------------------------------------------------|
D|--------------------------------------------------------|
A|--------------------------------------------------------|
E|-3-3-3-3-3-3-6-6-6-6-6-6-13-13-13-13-13-13--13-13h15p13-|
B|--------------------------------------------------------|

"Right were I want you to be again"
G|---------------------------------------------------|
D|---------------------------------------------------|
A|---------------------------------------------------|
E|--------------6---6-6-6-6---1---1-1-1-1-1h3p1--1--1|
B|-4---4-4-4-4---------------------------------------|

"I love you please see and believe again"
G|----------------------------------------------------------|
D|----------------------------------------------------------|
A|----------------------------------------------------------|
E|--3---3-3-3-3--6--6-6-6-6---1---1-1-1-1/13---13-13-13-13--|
B|----------------------------------------------------------|

"Here you are down on your knees again"
G|------------------------------------------------------------|
D|------------------------------------------------------------|
A|------------------------------------------------------------|
E|-3-3-3-3-3-3-6-6-6-6-6-6-13-13-13-13-13-13-13-13-13-13-13-13|
B|------------------------------------------------------------|

"Trying to forget to breathe again"
G|--------------------------------------------------------|
D|--------------------------------------------------------|
A|--------------------------------------------------------|
E|-3-3-3-3-3-3-6-6-6-6-6-6-13-13-13-13-13-13--13-13h15p13-|
B|--------------------------------------------------------|

"Right where I want you be again"
G|--------------------------------------------------------|
D|--------------------------------------------------------|
A|--------------------------------------------------------|
E|-3-3-3-3-3-3----6-6-6-6-6-6----1-1-1-1-1-1-1-1-1-1-1-1--|
B|--------------------------------------------------------|

"See and believe!"
G|------------------------------------|
D|------------------------------------|
A|------------------------------------|
E|-3-3-3-3-3-3----6-6-6-6-6-6----8~---|
B|------------------------------------|

End
            

comments powered by Disqus
↑ Back to top | Flyleaf Bass for Again. Lyrics for acoustic guitar and electric guitar. Tablatures and chords are parodies/interpretations of the original songs. You may use it for private study, scholarship, research or language learning purposes only