» » »

Flyleaf, Again Tabs (ver.3)

Artists:  A B C D E F G H I J K L M N O P Q R S T U V W X Y Z # 

Again Tabs (ver.3)

Flyleaf Tabs
Rating:
5/5 (9 votes)
Again lessons Tabs too difficult? Try these video lessons and learn fast
                The B string is optional to play or mute. Depends on self preference.
This is just a rough tabs. Enjoy

/-slide
(s)-same tabs/note
X-mute

Intro:
e|---X-----X-----X------------------------------------------|
B|---8-----11----6------------------------------------------|
G|---7-----10----5------------------------------------------|    X2
D|---5-----8-----3------------------------------------------|
A|---5-----8-----3------------------------------------------|
D|---5-----8-----3------------------------------------------|

Verse:
e|---X-----X-----X----X-----X----X----X/X---X---------------|
B|---8-----11----6---6/8----8----11---6/13--15--------------|
G|---7-----10----5---5/7----7----10---5/12--14--------------|   
D|---5-----8-----3----X-----5----8----3/10--12--------------|
A|---5-----8-----3----X-----5----8----3/10--12--------------|
D|---5-----8-----3----X-----5----8----3/10--12--------------|

e|---X-----X-----X----X-----X----X----X-----X---------------|(Pre-Chorus)
B|---8-----11----6---6/8----8----11---6-----X---------------|
G|---7-----10----5---5/7----7----10---5-----X---------------|  
D|---5-----8-----3----X-----5----8----3-----15--------------|
A|---5-----8-----3----X-----5----8----3-----15--------------|
D|---5-----8-----3----X-----5----8----3-----15--------------|

Chorus:
e|---X-----X-----X-----X-----X-----X------------------------|
B|---8-----11----6-----8-----11----6------------------------|
G|---7-----10----5-----7-----10----5------------------------|    
D|---5-----8-----3-----5-----8-----3------------------------|
A|---5-----8-----3-----5-----8-----3------------------------|
D|---5-----8-----3-----5-----8-----3------------------------|

e|---X-----X-----X-----X-----X-----X-----X------------------|
B|---4-----8-----11----6-----4-----8-----13-----------------|
G|---3-----7-----10----5-----3-----7-----12-----------------|    
D|---1-----5-----8-----3-----1-----5-----10-----------------|
A|---1-----5-----8-----3-----1-----5-----10-----------------|
D|---1-----5-----8-----3-----1-----5-----10-----------------|

Bridge:
   They..under..be still
e|---X-----X-----X--------------X-----X-----X------10-------|
B|---3-----8-----11/10/11/10----3-----8-----11-----10-------|
G|---2-----7-----10(s)----------2-----7-----10-----7--------|    
D|---0-----5-----8(s)-----------0-----5-----8------7--------|
A|---0-----5-----8(s)-----------0-----5-----8------X--------|
D|---0-----5-----8(s)-----------0-----5-----8------X--------|
            

comments powered by Disqus
↑ Back to top | Flyleaf Tabs for Again. Lyrics for acoustic guitar and electric guitar. Tablatures and chords are parodies/interpretations of the original songs. You may use it for private study, scholarship, research or language learning purposes only