» » »

Again Bass tabs (ver.1)

Artists:  A B C D E F G H I J K L M N O P Q R S T U V W X Y Z # 

Again Bass tabs (ver.1)

Flyleaf
Rating:
3/5 (2 votes)

Hard to play? Try these video lessons and learn fast.
                Flyleaf - Again

This is an absolutly incredible song with a very deep meaning. If you want to
know more about the meaning behind this song and many other Flyleaf songs I 
encourage you to check out this video:



Intro
G|--------------------------------------------------|
D|--------------------------3-3-3-3-3-3-3-3-3-3-3-3-|
A|-------------1-1-1-1-1-1--------------------------|
D|-5-5-5-5-5-5--------------------------------------| x3

G|---------------------------------------------------|
D|--------------------------3-3-3-3-3-3-3-3--3-3h5p3-|
A|-------------1-1-1-1-1-1---------------------------|
D|-5-5-5-5-5-5---------------------------------------|



Verse
"I love the way that your heart breaks"
G|--------------------------------------------------------|
D|--------------------------------------------------------|
A|--------------------------------------------------------|
D|-5-5-5-5-5-5----8-8-8-8-8-8----3---3-3-3-3-3h5p3-3---3--|

"With every injustice and deadly fate"
G|---------------------------------------------------------|
D|---------------------------------------------------------|
A|-----------------------------------------------------5---|
D|-5-5-5-5-5-5----8-8-8-8-8-8----3---3-3-3-3-3-3-3h5p3---3-|

"Praying it all be new"
G|--------------------------------------------------------|
D|--------------------------------------------------------|
A|--------------------------------------------------------|
D|-5-5-5-5-5-5----8-8-8-8-8-8----3---3-3-3-3-3h5p3-3-3-3--|

"And living like it all depends on you"
G|---------------------------------------------------------------|
D|---------------------------------------------------------------|
A|---------------------------------------------------------------|
D|-5-5-5-5-5-5----8-8-8-8-8-8----3---3-3-3-3-3h5p3-3-3-3h5p3-3-3-|



Chorus
"Here you are down on your knees again"
G|--------------------------------------------------|
D|--------------------------3-3-3-3-3-3-3-3-3-3-3-3-|
A|-------------1-1-1-1-1-1--------------------------|
D|-5-5-5-5-5-5--------------------------------------|

"Trying to forget to breathe again"
G|---------------------------------------------------|
D|--------------------------3-3-3-3-3-3-3-3--3-3h5p3-|
A|-------------1-1-1-1-1-1---------------------------|
D|-5-5-5-5-5-5---------------------------------------|

"And only surrender will help you now"
G|---------------------------------------------------|
D|---------------------------------------------------|
A|-6---6-6-6-6---------------------------------------|
D|--------------8---8-8-8-8---3---3-3-3-3-3-3-3-3-3-3|

"I love you please see and believe again"
G|----------------------------------------------------------|
D|----------------------------------------------------------|
A|----------------------------------------------------------|
D|--5---5-5-5-5--8--8-8-8-8---3---3-3-3-3/15---15-15-15-15--|



Verse
"I love that your never satisfied"
G|--------------------------------------------------------|
D|--------------------------------------------------------|
A|--------------------------------------------------------|
D|-5-5-5-5-5-5----8-8-8-8-8-8----3---3-3-3-3-3h5p3-3---3--|

"With face value wisdom and happy lies"
G|---------------------------------------------------------|
D|---------------------------------------------------------|
A|-----------------------------------------------------5---|
D|-5-5-5-5-5-5----8-8-8-8-8-8----3---3-3-3-3-3-3-3h5p3---3-|

"You take what they say, go back and cry"
G|--------------------------------------------------------|
D|--------------------------------------------------------|
A|--------------------------------------------------------|
D|-5-5-5-5-5-5----8-8-8-8-8-8----3---3-3-3-3-3h5p3-3-3-3--|

"Your so close to me that you nearly died"
G|---------------------------------------------------------------|
D|---------------------------------------------------------------|
A|---------------------------------------------------------------|
D|-5-5-5-5-5-5----8-8-8-8-8-8----3---3-3-3-3-3h5p3-3-3-3h5p3-3-3-|



Chorus
"Here you are down on your knees again"
G|--------------------------------------------------|
D|--------------------------3-3-3-3-3-3-3-3-3-3-3-3-|
A|-------------1-1-1-1-1-1--------------------------|
D|-5-5-5-5-5-5--------------------------------------|

"Trying to forget to breathe again"
G|---------------------------------------------------|
D|--------------------------3-3-3-3-3-3-3-3--3-3h5p3-|
A|-------------1-1-1-1-1-1---------------------------|
D|-5-5-5-5-5-5---------------------------------------|

"And only surrender will help you now"
G|---------------------------------------------------|
D|---------------------------------------------------|
A|-6---6-6-6-6---------------------------------------|
D|--------------8---8-8-8-8---3---3-3-3-3-3-3-3-3-3-3|

"I love you please see and believe again"
G|----------------------------------------------------------|
D|----------------------------------------------------------|
A|----------------------------------------------------------|
D|--5---5-5-5-5--8--8-8-8-8---3---3-3-3-3/15---15-15-15-15--|



Bridge
"They don't have to understand you, be still"
G|--------------------------------------------------------------------------------------------|
D|--------------------------------------------------------------------------------------------|
A|--------------------------------------------------------------------------------------------|
D|--0--0-0-0-0---3--3-3-3-3---5--5-5-5-5---7--7-7-7-7---7--3-3-3-3---3-3-3-3--3-3-3-3---3---3-|

"Wait and know I understand you, be still"
G|----------------------------------------------------------------------------|
D|----------------------------------------------------------------------------|
A|----------------------------------------------------------------------------|
D|--0--0-0-0-0---3--3-3-3-3---5--5-5-5-5---7--7-7-7-7---7--3-3-3-3---3-3-3-7~-|



"Be still!"


Chorus
"Here you are down on your knees again"
G|--------------------------------------------------|
D|--------------------------3-3-3-3-3-3-3-3-3-3-3-3-|
A|-------------1-1-1-1-1-1--------------------------|
D|-5-5-5-5-5-5--------------------------------------|

"Trying to forget to breathe again"
G|--------------------------------------------------------|
D|--------------------------------------------------------|
A|--------------------------------------------------------|
D|-5-5-5-5-5-5----8-8-8-8-8-8----3---3-3-3-3-3h5p3-3---3--|

"And only surrender will help you now"
G|---------------------------------------------------|
D|---------------------------------------------------|
A|-6---6-6-6-6---------------------------------------|
D|--------------8---8-8-8-8---3---3-3-3-3-3-3-3-3-3-3|

"The floodgates are breaking and pulling out"
G|---------------------------------------------------------------|
D|---------------------------------------------------------------|
A|---------------------------------------------------------------|
D|--5---5-5-5-5--8--8-8-8-8-3/15---15-15-15-15---15---15-15-15-15|

"Here you are down on your knees"
G|--------------------------------------------------|
D|--------------------------3-3-3-3-3-3-3-3-3-3-3-3-|
A|-------------1-1-1-1-1-1--------------------------|
D|-5-5-5-5-5-5--------------------------------------|

"Trying to forget to breathe"
G|---------------------------------------------------|
D|--------------------------3-3-3-3-3-3-3-3--3-3h5p3-|
A|-------------1-1-1-1-1-1---------------------------|
D|-5-5-5-5-5-5---------------------------------------|

"Right were I want you to be again"
G|---------------------------------------------------|
D|---------------------------------------------------|
A|-6---6-6-6-6---------------------------------------|
D|--------------8---8-8-8-8---3---3-3-3-3-3h5p3--3--3|

"I love you please see and believe again"
G|----------------------------------------------------------|
D|----------------------------------------------------------|
A|----------------------------------------------------------|
D|--5---5-5-5-5--8--8-8-8-8---3---3-3-3-3/15---15-15-15-15--|

"Here you are down on your knees again"
G|--------------------------------------------------|
D|--------------------------3-3-3-3-3-3-3-3-3-3-3-3-|
A|-------------1-1-1-1-1-1--------------------------|
D|-5-5-5-5-5-5--------------------------------------|

"Trying to forget to breathe again"
G|---------------------------------------------------|
D|--------------------------3-3-3-3-3-3-3-3--3-3h5p3-|
A|-------------1-1-1-1-1-1---------------------------|
D|-5-5-5-5-5-5---------------------------------------|

"Right where I want you be again"
G|--------------------------------------------------------|
D|--------------------------------------------------------|
A|--------------------------------------------------------|
D|-5-5-5-5-5-5----8-8-8-8-8-8----3-3-3-3-3-3-3-3-3-3-3-3--|

"See and believe!"
G|------------------------------------|
D|------------------------------------|
A|------------------------------------|
D|-5-5-5-5-5-5----8-8-8-8-8-8----10~--|

End
G|--9h12-|
D|-------|
A|-------|
E|-------|



God Bless
            
Hard to play? Try these video lessons and learn fast. | Correct




comments powered by Disqus
↑ Back to top | Tablatures and chords are parodies/interpretations of the original songs. You may use it for private study, scholarship, research or language learning purposes only