» » »

Again Tabs (ver.1)

Artists:  A B C D E F G H I J K L M N O P Q R S T U V W X Y Z # 

Again Tabs (ver.1)

Flyleaf
Rating:
3/5 (3 votes)

Hard to play? Try these video lessons and learn fast.
                
Questions? AIM: Ricanslipknotfan


Intro   0:00 - 0:18  first guitar (slide to each note)
e|----------------------------------------------|
B|-5/8----5----3----1(3x)-then--5/8--10--12--14-|
G|----------------------------------------------|
D|----------------------------------------------|
A|----------------------------------------------|
D|----------------------------------------------|

Intro   0:09 - 0:18  second guitar 
e|----------------------------------------------|
B|----------------------------------------------|
G|------------------101010101010101010101010----|
D|---555555-888888--101010101010101010101010----|
A|---555555-888888--8-8-8-8-8-8-8-8-8-8-8-8-----|
D|---555555-888888------------------------------|

verse
guitar 1   0:22
e|------------------------------------|
B|---------------------1313-1313/15---|
G|---555-5/7--7\\------1212-1212/14---|x2
D|---555-5/7--7\\---------------------|
A|------------------------------------|
D|------------------------------------|
guitar 2   0:19
e|-------------------------------------|
B|-------------------------------------|
G|--7-7-10/12\10/12~----55-55----------|x2
D|----------------------55-55----------|
A|-------------------------------------|
D|-------------------------------------|
guitar 2   0:28
e|------------------------------------|
B|------------------------------------|
G|---10/12-12-12--5/7-777-------------|
D|------------------------8-8888------|
A|-------------------------------8----|
D|------------------------------------|
guitar 2   0:33
e|----------------------------------------------|
B|----------------------------------------------|
G|--10/12-12-12-5/7-777-------------------------|
D|----------------------8-888888888/10101010----|
A|----------------------------------------------|
D|----------------------------------------------|

chorus    both guitars
e|----------------------------------------------|
B|----------------------------------------------|
G|------------------101010101010101010101010----|x2
D|---555555-888888--101010101010101010101010----|
A|---555555-888888--8-8-8-8-8-8-8-8-8-8-8-8-----|
D|---555555-888888------------------------------|
  "only surrender will help you now"
e|---------------------------------|
B|---------------------------------|
G|---------------------------------|x1
D|---111111-555555-888888-333333---|
A|---111111-555555-888888-333333---|
D|---111111-555555-888888-333333---|

e|---------------------------------|
B|---------------------------------|
G|---------------------------------|x1
D|---111111-555555-333333333333----|
A|---111111-555555-333333333333----|
D|---111111-555555-333333333333----|

Repeat verse and chorus

Bridge
guitar 1
e|--------------------------------------------|
B|--------------------------------------------|
G|-----------------101010101010101010101010---|
D|---000000-555555-8-8-8-8-8-8-8-8-8-8-8-8----|
A|---000000-555555-8-8-8-8-8-8-8-8-8-8-8-8----|
D|---000000-555555-8-8-8-8-8-8-8-8-8-8-8-8----|
guitar 2
e|---------------------------------------------------------|
B|-------------------11-11-11-10-10-10----------10-10-10---|
G|-------------------------------------12-12-12------------|
D|---000000-555555-----------------------------------------|
A|---000000-555555-----------------------------------------|
D|---000000-555555-----------------------------------------|

guitar 1
e|--------------------------------|
B|--------------------------------|
G|-----------------101010101010---|
D|---000000-555555-8-8-8-8-8-8----|
A|---000000-555555-8-8-8-8-8-8----|
D|---000000-555555-8-8-8-8-8-8----|
guitar 2
e|-------------------------------------22~-------|
B|-------------------11-11-11-10-10-10-----------|
G|-----------------------------------------------|
D|---000000-555555-------------------------------|
A|---000000-555555-------------------------------|
D|---000000-555555-------------------------------|


Repeat Chorus

Ending chorus 
e|---------------------------------------------|
B|---------------------------------------------|
G|-----------------101010101010101010101010----|x2
D|---555555-888888-101010101010101010101010----|
A|---555555-888888-8-8-8-8-8-8-8-8-8-8-8-8-----|
D|---555555-888888-----------------------------|

e|-----------------------------------------------------------------------|
B|-----------------------------------------------------------------------|
G|-----------------------------------------------------------------------|
D|---111111-555555-888888-333333-111111-555555-101010101010101010101010--|
A|---111111-555555-888888-333333-111111-555555-101010101010101010101010--|
D|---111111-555555-888888-333333-111111-555555-101010101010101010101010--|
            
Hard to play? Try these video lessons and learn fast. | Correct




comments powered by Disqus
↑ Back to top | Tablatures and chords are parodies/interpretations of the original songs. You may use it for private study, scholarship, research or language learning purposes only