>
 >
Wine Baron

Wine Baron Guitar Tabs

Flying Stags - Wine Baron chords, tabs, tablatures, lyrics

Guitar lessons | Add/correct | Request | Top 50 tabs Artists:  A B C D E F G H I J K L M N O P Q R S T U V W X Y Z 0-9

Wine Baron Guitar Tabs – Flying Stags

CD, Sheet music, Poster

Do you like Wine Baron? Share with your friends now
Tabs
Flying Stags


Main Riff - Guitar 1
   Asus2       Asus4       Em
E--0--0--0-----0--0--0-----0--0h--0--|
B--0--0--0-----3--3--3-----0--0h--0--|
G--2--2--2-----2--2--2-----0--0h0-0--|
D--2--2--2-----2--2--2-----2--2h0-2--|
A--0--0--0-----0--0--0-----2--2h0-2--|
E--------------------------0--0h0-0--|

Guitar 2
   Asus2/4                        Em
E------------------------------|------------------------------|
B------------------------------|------------------------------|
G------------------------------|------------------------------|
D------------------------------|------------------------------|
A--10h12-10h12----10h12-10h12--|------------------------------|
E------------------------------|--10h12-10h12----10h12-10h12--|
    
                  
Bridge - Guitar 1                  
  A6           G6               B
E--9--9--9-----7--7--7-----|----7-7-7/----|
B--7--7--7-----5--5--5-----|----7-7-7/----|
G--9--9--9-----7--7--7-----|----8-8-8/----|
D--7--7--7-----5--5--5-----|----9-9-9/----|
A--7--7--7-----5--5--5-----|----9-9-9/----|
E--------------------------|----7-7-7/----|

Guitar 2
E------------|
B------------|
G------------|
D------------|
A--7-6-7-/5--|
E------------|


Solo - Guitar 2
   Asus2/4
E------------------------|
B------------------------|
G--------14-12-------14--|   2x
D--12-12-------14-12-----|
A------------------------|
E------------------------|

   Em
E-----------------------------------------------|
B-----------------------------------------------|
G-----------------------------------------------|
D--------14-12-------14---------14-12-----------|
A--12-12-------14-12------12-12-------14-12-10--|
E-----------------------------------------------|





Comments


Popular Flying Stags tabs & chords
Chinese Tabs
Damned Dog Tabs
Insane Funk Officer Tabs
Jolly Nightmare Tabs
Traveling To Babylon Tabs


Song lyrics



↑ Back to top | Tablatures and chords are parodies/interpretations of the original songs. You may use it for private study, scholarship, research or language learning purposes only
© 2014 AZChords.com Contact us | Privacy policy | DMCA | Add/correct tabs | Request tabs | Top 50 tabs