» » »

Flying Stags, Traveling To Babylon Tabs (ver.1)

Artists:  A B C D E F G H I J K L M N O P Q R S T U V W X Y Z # 

Traveling To Babylon Tabs (ver.1)

Flying Stags Tabs
Rating:
0/5 (0 votes)
Traveling To Babylon lessons Tabs too difficult? Try these video lessons and learn fast
                Flying Stags
Traveling to Babylon

Intro
E----------------------------------------
B----------------------------------------
G----------------------------------------
D--7-7-9-9-7-7-7-9-9--5-5-7-7-5-5-5-7-7--
A--7-7-9-9-7-7-7-9-9--5-5-7-7-5-5-5-7-7--
E--7-7-7-7-7-7-7-7-7--5-5-5-5-5-5-5-5-5--

E----------------------------------------
B----------------------------------------
G----------------------------------------
D--2-2/4-4-2-2/4-4-4--5-5-7-7-5-5-7-7-7--
A--2-2/4-4-2-2/4-4-4--5-5-7-7-5-5-7-7-7--
E--0-0-0-0-0-0-0-0-0--5-5-5-5-5-5-5-5-5--

Verse (with Dist.)
E-----------------------------------------
B-----------------------------------------
G-----------------------------------------
D--9-99-99---7-77-77---2-22-22---4-44-44--
A--9-99-99---7-77-77---2-22-22---4-44-44--
E--7-77-77---5-55-55---0-00-00---2-22-22--

E-----------------------------------------
B-----------------------------------------
G-----------------------------------------
D--9-99-99---7-77-77---4-44-44---2-22-22--
A--9-99-99---7-77-77---4-44-44---2-22-22--
E--7-77-77---5-55-55---2-22-22---0-00-00--

Bridge (with Dist.)
E------------------------------------------
B------------------------------------------
G------------------------------------------
D--12-1212-1212--9-99-99--7-77-7777-77-77--
A--12-1212-1212--9-99-99--7-77-7777-77-77--
E--10-1010-1010--7-77-77--5-55-5555-55-55--

Solo (with Dist.)
E--9-99-999-7-77-777-2-22-2222-22-22-2--
B--9-99-999-7-77-777-2-22-2222-22-22-2--
G---------------------------------------
D---------------------------------------
A---------------------------------------
E---------------------------------------
            
Submit corrections

comments powered by Disqus
↑ Back to top | Flying Stags Tabs for Traveling To Babylon. Lyrics for acoustic guitar and electric guitar. Tablatures and chords are parodies/interpretations of the original songs. You may use it for private study, scholarship, research or language learning purposes only