» » »

Jolly Nightmare Tabs (ver.1)

Artists:  A B C D E F G H I J K L M N O P Q R S T U V W X Y Z # 

Jolly Nightmare Tabs (ver.1)

Flying Stags
Rating:
0/5 (0 votes)

Hard to play? Try these video lessons and learn fast.
                Tuning:normal
written by Tobi Rueß

Intro:
e|-----------------------------------------------------------
B|-----------------------3-----------------------------------
G|---3h5-3-0-5-3-0-3h5-3----5-3-5----------------------------
D|--------------------------------3-3-3-5-5------------------
A|-----------------------------------------------------------
E|-----------------------------------------------------------
Bridge:
e|-0-0-0-1-1-0-----------------------------------------------
B|-1-1-0-0-0-0-----------------------------------------------
G|-2-2-2-0-0-0-----------------------------------------------
D|-2-2-2-2-2-2-----------------------------------------------
A|-0-0-0-3-3-3-----------------------------------------------
E|-----------------------------------------------------------
Verse:
    C    Am   C   Am   C   Am   D
e|--0-----0---0---0----0---0----2----------------------------
B|--1-----1---1---1----1---1----3----------------------------
G|--0-----2---0---2----0---2----2----------------------------
D|--2-----2---2---2----2---2----0----------------------------
A|--3-----0---3---0----3---0----0----------------------------
E|--0-----0---0---0----0---0----0----------------------------

e|--------------16-13-------15-13----------------------------
B|--13h15-13----------16-13----------------------------------
G|-----------15---------------------------------------------- 2x
D|-----------------------------------------------------------
A|-----------------------------------------------------------
E|-----------------------------------------------------------
Ending:
e|-----------------------------------------------------------
B|-----------------------3-----------------------------------
G|---3h5-3-0-5-3-0-3h5-3---5-3-5-----------------------------
D|-------------------------------3-3-3-5-5-------------------
A|-----------------------------------------------------------
E|-----------------------------------------------------------
            
Hard to play? Try these video lessons and learn fast. | Correct




comments powered by Disqus
↑ Back to top | Tablatures and chords are parodies/interpretations of the original songs. You may use it for private study, scholarship, research or language learning purposes only