» » »

Insane Funk Officer Tabs (ver.1)

Artists:  A B C D E F G H I J K L M N O P Q R S T U V W X Y Z # 

Insane Funk Officer Tabs (ver.1)

Flying Stags
Rating:
0/5 (0 votes)

Hard to play? Try these video lessons and learn fast.
                Tuning:normal
written by Tobi
Intro:
e|-----------------------------------------------------------
B|-----------------------------------------------------------
G|-----------------------------------------------------------
D|--6-5-4-------6-5-4-------6-5-4---------------------------- 2x
A|--------4-5-6-------4-5-6-------4-5-6----------------------
E|--------------------------------------4-4-4-4-4------------

Main Riff:
Guitar 1
e|-----------------------------------------------------------
B|-----------------------------------------------------------
G|-----------------------------------------------------------
D|----------------9------------------------------------------
A|---11-11-9-11-9---9-11-11-9-11-9-11------------------------
E|------------------------------------9----------------------

Guitar 2:
e|--4-4-x-4-x-6-4-4-x-4-x-2----------------------------------
B|--4-4-x-4-x-6-4-4-x-4-x-2----------------------------------
G|--5-5-x-5-x-7-5-5-x-5-x-3----------------------------------
D|--6-6-x-6-x-8-6-6-x-6-x-4----------------------------------
A|--6-6-x-6-x-8-6-6-x-6-x-4----------------------------------
E|--4-4-x-4-x-6-4-4-x-4-x-2----------------------------------

Chorus:
Guitar 1:
e|-----------|---------|--------------------------------------
B|----7------|---7-----|--------------------------------------
G|--8---8-7--|-8---8-7-|--------------------------------------
D|-----------|---------|--------------------------------------
A|-----------|---------|--------------------------------------
E|-----------|---------|--------------------------------------

Guitar 2 starts when guitar 1 finished
e|---8-8-8---------------------------------------------------
B|---8-8-8---------------------------------------------------
G|---8-8-8---------------------------------------------------
D|-----------------------------------------------------------
A|-----------------------------------------------------------
E|-----------------------------------------------------------
            
Hard to play? Try these video lessons and learn fast. | Correct




comments powered by Disqus
↑ Back to top | Tablatures and chords are parodies/interpretations of the original songs. You may use it for private study, scholarship, research or language learning purposes only