» » »

Flying Stags, Damned Dog Tabs (ver.1)

Artists:  A B C D E F G H I J K L M N O P Q R S T U V W X Y Z # 

Damned Dog Tabs (ver.1)

Flying Stags Tabs
Rating:
0/5 (0 votes)
Hard to play? Try these video lessons and learn fast.
                Tuning:normal

written by Tobi Rueß
Intro: 
       8x   8x  8x 8x
e|-----x----x---x---x----------------------------------------
B|-----12---9---7---9----------------------------------------
G|-----9----6---4---6----------------------------------------  2x
D|-----10---7---5---7----------------------------------------
A|-----------------------------------------------------------
E|-----------------------------------------------------------
Main Riff:
e|-----------------------------------------------------------
B|-----------------------------------------------------------
G|-----------------------------------------------------------
D|--9--9--9--11h12-12-12--7-7-7-9h10-10-10--5-5-5-7h8-8-8----
A|--10-10-10-10----10-10--8-8-8-8----8--8---6-6-6-6---6-6----
E|-----------------------------------------------------------

e|-----------------------------------------------------------
B|-----------------------------------------------------------
G|----------------------------------------------------------- 3x
D|-7-7-7-9h10-10-10------------------------------------------
A|-8-8-8-8----8--8-------------------------------------------
E|-----------------------------------------------------------

Ending:
e|--4-4-4-4-4-6-6-6-4-4-4------------------------------------
B|--4-4-6-6-6-6-6-6-6-6-6------------------------------------
G|--4-4-6-6-6-6-6-6-6-6-6------------------------------------
D|--6-6-6-6-6-4-4-4-6-6-6------------------------------------
A|--6-6-4-4-4-4-4-4-4-4-4------------------------------------
E|--4-4-4-4-4-------4-4-4------------------------------------
            

comments powered by Disqus
↑ Back to top | Flying Stags Tabs for Damned Dog. Lyrics for acoustic guitar and electric guitar. Tablatures and chords are parodies/interpretations of the original songs. You may use it for private study, scholarship, research or language learning purposes only