» » »

Flying Stags, Chinese Tabs (ver.1)

Artists:  A B C D E F G H I J K L M N O P Q R S T U V W X Y Z # 

Chinese Tabs (ver.1)

Flying Stags Tabs
Rating:
0/5 (0 votes)
Chinese lessons Tabs too difficult? Try these video lessons and learn fast
                Tuning:normal
Intro:
e|-----------------------------------------------------------
B|--19-19-18--------------18-19-18---------------------------
G|--18-18-17-19-18--18-19-17-18-17-19-18---------------------
D|-----------18-17--17-18----------18-17---------------------
A|-----------------------------------------------------------
E|-----------------------------------------------------------
Main Riff
e|--1h2-2-1--------------------------------------------------
B|--1h2-2-1---------1-2-1------------------------------------
G|----------2-1-1-2-------2-1--------------------------------
D|-----------------------------------------------------------
A|-----------------------------------------------------------
E|-----------------------------------------------------------
            
Submit corrections

comments powered by Disqus
↑ Back to top | Flying Stags Tabs for Chinese. Lyrics for acoustic guitar and electric guitar. Tablatures and chords are parodies/interpretations of the original songs. You may use it for private study, scholarship, research or language learning purposes only