» » »

Flying Pooh, Rock The Soul Tabs (ver.1)

Artists:  A B C D E F G H I J K L M N O P Q R S T U V W X Y Z # 

Rock The Soul Tabs (ver.1)

Flying Pooh Tabs
 Rating:
4/5 (4 votes)
Rock The Soul lessons Tabs too difficult? Try these video lessons and learn fast
                Flying Pooh
Viva San Antonio

Intro:
---------------------
---------------------
---------------------
---------------------
---0-3-0-5-0-5-7-7---
---------------------

Couplet:
---4---10---9-----------------10------10---
---5---11---10-----------9-10----9-10------
----------------------10-------------------
-------------------------------------------
-------------------------------------------
-------------------------------------------

guitare 2:
---------------
---------------
---------------
---------------
-------0-1-2---
---0-3---------

Refrain:
--------------------------------------
--------------------------------------
--------------------------------------
--------------------------------------
----------------------------5/7/5-5---
---0-0--0-3-3--0-5-5--0-6-7-----------

Solo:
---9---------------------9----|------------------------------------------------------
---10--------------------10---|---12-10/8-12--15-12-10/8/5-10-8-------------------10-
-------7-6-7-6-7-6-7-6--------|---------------------------------9-11-11-9-12-12-9----
------------------------------|------------------------------------------------------
------------------------------|------------------------------------------------------------------------------------|------------------------------------------------------

-----------------10-8---12-15-12-------------10-8-7---8/7-----------------
---9-11-11-9-7-------------------11-12-14-16--------9-----7-------9-8-7---
---------------9--------------------------------------------9-------------
------------------------
            
Submit corrections

comments powered by Disqus
↑ Back to top | Flying Pooh Tabs for Rock The Soul. Lyrics for acoustic guitar and electric guitar. Tablatures and chords are parodies/interpretations of the original songs. You may use it for private study, scholarship, research or language learning purposes only