» » »

Psikatric Core Tabs (ver.1)

Artists:  A B C D E F G H I J K L M N O P Q R S T U V W X Y Z # 

Psikatric Core Tabs (ver.1)

Flying Pooh
Rating:
0/5 (0 votes)

Hard to play? Try these video lessons and learn fast.
                Flying Pooh
Viva San Antonio

Intro/Refrain:
----------------
----------------
----------------
---5--5--5--6---
---5--5--5--6---
---5--5--5--6---

----------------------0
----------------------0
-------6-5-6----------0
---5-5-6-5-6-6--5-5-5-6
---5-5-6-5-6-6--5-5-5-6
---5-5-------6--5-5-5-6

guitare 2:
------|-----------------|---11--11--11--11---
------|---3-4-3-4-3-4---|--------------------
------|-----------------|--------------------
------|-----------------|--------------------
------|-----------------|--------------------
------|-----------------|--------------------

Couplet:
---12-------------12----------
---10-------------10----------
--------7-8-11--------11-12---
------------------------------
------------------------------
------------------------------

Pré-refrain:
----------11--------------11---
-------------------------------
-------------------------------
---5-5-----------5-5-5---------
---5-5-----------5-5-5---------
---5-5-----------5-5-5---------

Pont:
--------------
--------------
--------------
---7--10--6---
---7--10--6---
---7--10--6---
            
Hard to play? Try these video lessons and learn fast. | Correct




comments powered by Disqus
↑ Back to top | Tablatures and chords are parodies/interpretations of the original songs. You may use it for private study, scholarship, research or language learning purposes only