» » »

Flying Pooh, Meecztow Revolution Tabs (ver.1)

Artists:  A B C D E F G H I J K L M N O P Q R S T U V W X Y Z # 

Meecztow Revolution Tabs (ver.1)

Flying Pooh Tabs
 Rating:
4/5 (4 votes)
Meecztow Revolution lessons Tabs too difficult? Try these video lessons and learn fast
                Flying Pooh
Viva San Antonio

Riff 1:
------------
------------
------------
---111111---
---111111---
---111111---

Riff 2:
------------------------------
---------0------------0---1---
-------1---1--------1---1-----
---2-3-------3-2--3-----------
------------------------------
------------------------------

Riff 3:
----------------------0--------
-----------------------0-------
------------1-4---------0------
---2--0-2-3-----2--------2-----
--------------------------0----
---------------------------0---

Riff 4:
--------------------------------
--------------------------------
--------------------------------
---0-2-3-5-3-2-3-2--0-2-3-5-6---
--------------------------------
--------------------------------

Riff 5:
----------------------------
----------------------------
----------------------------
---3--2--3--2--0--2--3--2---
----------------------------
----------------------------

Riff 6:
--------------------
--------------------
--------------------
---0--0-0--0--0-0---
---0--0-0--0--0-0---
---0--0-0--0--0-0---

Riff 7:
-------------------------------------------------------
-------------------------------------------------------
-------------------------------------------------------
------------6------------------------7-----------7-----
------7------------7-------------------6-----------6---
---5-----6------5------6---6-----5-------7-----5-------
            
Submit corrections

comments powered by Disqus
↑ Back to top | Flying Pooh Tabs for Meecztow Revolution. Lyrics for acoustic guitar and electric guitar. Tablatures and chords are parodies/interpretations of the original songs. You may use it for private study, scholarship, research or language learning purposes only