» » »

Flying Pooh, Des Bleus Dans Les Yeux Tabs (ver.1)

Artists:  A B C D E F G H I J K L M N O P Q R S T U V W X Y Z # 

Des Bleus Dans Les Yeux Tabs (ver.1)

Flying Pooh Tabs
 Rating:
4/5 (4 votes)
Des Bleus Dans Les Yeux lessons Tabs too difficult? Try these video lessons and learn fast
1
                Des bleux dans les yeux
Flying Pooh
Viva San Antonio
tab de crazytom

Intro :
-------------------------------------
-------------------------------------
-------------------------------------
-------------------------------------
-------------------------------------
---2-3-2-3-6-0-0---2-3-2-3-2-6-0-0---

-------------------------------------|-----------
-------------------------------------|-----------
-------------------------------------|-----------
-------------------------------------|-----------
---2-3-2-3-6-0-0---2-3-2-3-2-6-0-0---|---3-2-1---
---2-3-2-3-6-0-0---2-3-2-3-2-6-0-0---|---3-2-1---

Couplet 1 et 3:
--------4-5-4-5-4-5-4------------4--------4-5-4-5-4-5-4------------
---3—6---------------6-5-3—5-6-----3—6---------------6-5-3—----

Refrain :
---8--8-8-8---------------------------8--8-8-8-------------------9---
---8--8-8-8-10-8-10--11-10------------8--8-8-8-10-8-10--11-10--------
---------------------------12-11------------------------------12-----

Couplet 2 et 4:
--------------------------------4-------------------------------------
---------5-4----4-5-6-5-4-6-4-5------------5-4----4-5-------4---------
---3--6------------------------------3--6-------------6-5-6---6-5-3---

Solo:
gtr1:
---------------8-8----------------------------------8-8-----
-------------8-----8----9--------7----------------8-----8---
---8----8-10--------------8p7-----------8----8-10-----------
-----10-----------------------10----------10----------------
------------------------------------------------------------
------------------------------------------------------------

----10-11-10----------------------
-------------12-11-10-9----9-10---
------------------------11--------
----------------------------------
----------------------------------
----------------------------------

---------------8-8-------------------------------------------|----------------
-------------8-----8----9--------7------10-10---9-8-7-6-10---|---9--8--7--6---
---8----8-10--------------8p7-----------10-10---9-8-7-6-10---|---9--8--7--6---
-----10-----------------------10--------8--8----7-6-5-4-8----|---7--6--5--4---
-------------------------------------------------------------|----------------
-------------------------------------------------------------|----------------
            
Submit corrections

comments powered by Disqus
↑ Back to top | Flying Pooh Tabs for Des Bleus Dans Les Yeux. Lyrics for acoustic guitar and electric guitar. 1 Tablatures and chords are parodies/interpretations of the original songs. You may use it for private study, scholarship, research or language learning purposes only