» » »

Benny's Party Tabs (ver.1)

Artists:  A B C D E F G H I J K L M N O P Q R S T U V W X Y Z # 

Benny's Party Tabs (ver.1)

Flying Pooh
Rating:
0/5 (0 votes)

Hard to play? Try these video lessons and learn fast.
                Flying Pooh
Viva San Antonio

Riff 1:
--------------------
--------------------
--------------------
--------------------
---7-7--------------
------5-5-6-6-7-7---

Riff 2:
---------------------
---------------------
---------------------
---2-------2-2-------
-----1/2-------1/2---
---------------------

Riff 3:
---------------------------
---------------------------
---------------------------
---0-0---0-0---0-0---0-0---
---0-0---0-0---0-0---0-0---
---0-0---0-0---0-0---0-0---

Riff 4:
---------------------
---------------------
---7-6-----7-6-------
---7-6-7-6-7-6-7-6---
---7-6-7-6-7-6-7-6---
-------7-6-----7-6---

Riff5:
------------------|-----------------
------------------|-----------------
---9--10----------|---7--8----------
----------10--9---|---7--8--10--9---
------------------|---7--8--10--9---
------------------|---------10--9---
            
Hard to play? Try these video lessons and learn fast. | Correct




comments powered by Disqus
↑ Back to top | Tablatures and chords are parodies/interpretations of the original songs. You may use it for private study, scholarship, research or language learning purposes only