» » »

Florence And The Machine, Cosmic Love Tabs (ver.1)

Artists:  A B C D E F G H I J K L M N O P Q R S T U V W X Y Z # 

Cosmic Love Tabs (ver.1)

Florence And The Machine Tabs
 Rating:
4/5 (7 votes)
Cosmic Love lessons Tabs too difficult? Try these video lessons and learn fast
                -------------------------------------------------------------------------------
-------------------------------------------------------------------------------
Hey so this is the first time I've tabbed something up here but I found this video 
and decided I wanted to play it and once I had it I said why not, so here it is.
This was a version they recorded for Last Fm with just Florence and the guitarist.

Tuning:EADGBe

Intro:

e|---------------------------------------------------------------------------|
B|-----1---------8---------5------------------1---------8---------5----------|
G|-----2---------9---------5------------------2---------9---------5----------|
D|---------------------------------------------------------------------------|
A|-----3--------10---------7------------------3--------10---------7----------|
E|---------------------------------------------------------------------------|

Verse 1: x4

e|----------------------------------------------|
B|---------------8---------------------8--------|
G|---------10------10----10----9---------9----9-|
D|---10-10----10------10----10---10-10-----10---|
A|----------------------------------------------|
E|----------------------------------------------|

e|----------------------------------------------|
B|-------------10------------------10-8---------|
G|--------9-------9----9------9------------9----|
D|-----10---10------10-----10---10------10------|
A|---0-------------------0----------------------|
E|----------------------------------------------|

Chorus 1: x4

e|---1111----8-8-8-8-----5555--------|
B|---1111----8-8-8-8-----5555--------|
G|---2222----9-9-9-9-----5555--------|
D|---3333----10101010----7777--------|
A|---3333----10101010----7777--------|
E|---1111----8-8-8-8-----5555--------|

Verse 2: x4

e|----------------------------------------------|
B|---------------8---------------------8--------|
G|---------10------10----10----9---------9----9-|
D|---10-10----10------10----10---10-10-----10---|
A|----------------------------------------------|
E|----------------------------------------------|

e|----------------------------------------------|
B|-------------10------------------10-8---------|
G|--------9-------9----9------9------------9----|
D|-----10---10------10-----10---10------10------|
A|---0-------------------0----------------------|
E|----------------------------------------------|

Chorus 2:


e|---0000----0000----0000--------|
B|---1111----1111----1111--------|
G|---2222----0000----2222--------|
D|---3333----2222----2222--------|
A|---0000----3333----------------|
E|-------------------------------|

e|---1111----8-8-8-8-----5555--------|
B|---1111----8-8-8-8-----5555--------|
G|---2222----9-9-9-9-----5555--------|
D|---3333----10101010----7777--------|
A|---3333----10101010----7777--------|
E|---1111----8-8-8-8-----5555--------|

(this next bit I'm just giving you rough guideline for the pattern you play, you also 
some of the other strings around the ones your playing for some volume)

x4                                                   first three times

e|--------------------------------------------------|---------3-0-----|
B|-----------1---------------1---------------3-1----|-----------------|
G|-------2-----2---2-----0-----0---0-----2---------2|-----2--------2--|
D|-----3---3-----3-----2---2-----2-----2---2-----2--|---2---2----2----|
A|---0---------------3---------------0--------------|-0---------------|
E|--------------------------------------------------|-----------------|

last time

e|---0-------|
B|----1------|
G|-----2-----|
D|------2----|
A|-------0---|
E|--------0--|

Just Flo singing...

Quiet Chorus: x4

e|----------------------------------------------|
B|---------------8---------------------8--------|
G|---------10------10----10----9---------9----9-|
D|---10-10----10------10----10---10-10-----10---|
A|----------------------------------------------|
E|----------------------------------------------|

e|----------------------------------------------|
B|-------------10------------------10-8---------|
G|--------9-------9----9------9------------9----|
D|-----10---10------10-----10---10------10------|
A|---0-------------------0----------------------|
E|----------------------------------------------|

Last Chorus: x4

e|-----------3-1------------------------------------------------------|
B|---------------------------1---------------3-1-------------1--------|
G|-------2---------2-----0-----0---0-----2---------2-----2-----2---2--|
D|-----3---3-----3-----2---2-----2-----2---2-----2-----2---2-----2----|
A|---0---------------3---------------0---------------0----------------|
E|--------------------------------------------------------------------|

Outro:

|Fmaj7|C|Am| x4

Slowing it down: x2                                 play only on the first

e|-----------3-1------------------------------------|------------------|
B|---------------------------1---------------3-1----|---------1--------|
G|-------2---------2-----0-----0---0-----2---------2|-----2-----2---2--|
D|-----3---3-----3-----2---2-----2-----2---2-----2--|---2---2-----2----|
A|---0---------------3---------------0--------------|-0----------------|
E|--------------------------------------------------|------------------|

to finish

e|---0-------|
B|----1------|
G|-----2-----|
D|------2----|
A|-------0---|
E|--------0--|

And that's it!

And just quickly because I get irritated when people don't say what chords are what:

  Fmaj7     C       Am

e|--0--|e|--0--|e|--0--|
B|--1--|B|--1--|B|--1--|
G|--2--|G|--0--|G|--2--|
D|--3--|D|--2--|D|--2--|
A|--0--|A|--3--|A|--0--|
E|--0--|E|--0--|E|--0--|
            
Submit corrections

comments powered by Disqus
↑ Back to top | Florence And The Machine Tabs for Cosmic Love. Lyrics for acoustic guitar and electric guitar. Tablatures and chords are parodies/interpretations of the original songs. You may use it for private study, scholarship, research or language learning purposes only