» » »

Flobots, No Handlebars Tabs (ver.2)

Artists:  A B C D E F G H I J K L M N O P Q R S T U V W X Y Z # 

No Handlebars Tabs (ver.2)

Flobots Tabs
 Rating:
4/5 (4 votes)
No Handlebars lessons Tabs too difficult? Try these video lessons and learn fast
1
                e|---------------------------------------------------------------------|
B|-------10------------------------------------------------------------|
G|-7--10-----10----------9--------------7--10-----------12-------------|
D|-----------------7--10----10-------8-----------10--14----14----------|
A|--------------------------------8------------------------------------|
E|---------------------------------------------------------------------|

e|---------------------------------------------------------------------|
B|---------------------------------------------------------------------|
G|-------------15----------19---------------17-----------------14------|
D|-----12---15-----17---20-----20---15---19-----19----14---17----------|
A|-13--------------------------------------------------------------12--|
E|---------------------------------------------------------------------|

this repeats throughout the whole song.
and is playable on any guitar, although it would be easier on a cutaway,
as it goes pretty high :)

then at 0:54 the rhythm comes in:

     D5     A5    F5   C5    Bb5   A5   G5   F5
e|------------------------------------------------|
B|------------------------------------------------|
G|----7-------------------------------------------|
D|----7-----7-----3-----10----8----7----5-----3---|
A|----5-----7-----3-----10----8----7----5-----3---|
E|----------5-----1-----8-----6----5----3-----1---|

and that's it !

you can listen to the song to get the tempo
I usually play another quick C5 in between the Bb5 and A5 but you don't have to (:
            
Submit corrections

comments powered by Disqus
↑ Back to top | Flobots Tabs for No Handlebars. Lyrics for acoustic guitar and electric guitar. 1 Tablatures and chords are parodies/interpretations of the original songs. You may use it for private study, scholarship, research or language learning purposes only