» » »

Mayday!!! Tabs (ver.2)

Artists:  A B C D E F G H I J K L M N O P Q R S T U V W X Y Z # 

Mayday!!! Tabs (ver.2)

Flobots
Rating:
0/5 (0 votes)

Hard to play? Try these video lessons and learn fast.
                Tuning:EADGBE

To clarify; there's nothing wrong with the other tab that's up; it's just; in my humble 
two of the riffs arn't chords but just single notes

I don't wanna p**s anyone off >_< this is just my lil idea of how it goes

e|--------------------------------------------------|
B|--------------------------------------------------|
G|---------------------------------------8----------|
D|-55-55-5-5-5-5/8--------------33-3-3---8----------|
A|-55-55-5-5-5-5/8--------------33-3-3---6----------|
E|-33-33-3-3-3-3/6--------------11-1-1-0------------|
born in the flood.....

e|------------------------11-1-111-1------------|
B|------------------------11-1-111-1------------|
G|------------------------11-1-111-188-8-888-8-8|
D|55-5-555-5-588-8-888-8-633-3-333-388-8-888-8-8|
A|55-5-555-5-588-8-666-6-633-3-333-366-6-666-6-6|
E|33-3-333-3-366-6-666-6-611-1-111-1------------|
but what if were caught


e|-----------------------------------------------------------------|
B|-----------------------------------------------------------------|
G|-----------------------------------------------------------------|
D|-----------------------------------------------------------------|
A|----------------43------------------------------43---------------|
E|3-----36---------------56-----4--3-----36--------------56----4^4^|
when I wanna shut out this world

e|10----------10----------10----------10----------|
B|---11----------11----------11----------11-------|
G|------------------------------------------------|
D|------12-12-------12-12-------12-12-------12-12-|
A|------------------------------------------------|
E|------------------------------------------------|
it was half-past eight in the bat cave

e|---------------------------------------------------------------|
B|---------------------------------------------------------------|
G|---------------------------------------------------------------|
D|---------------------------------------------------------------|
A|---5-6-5-3---------5-6-5-3---------5-6-5-3---------5-6-5-3-----|
E|3-3--------6-5-3-3---------6-5-3-3---------6-5-3-3---------6-5-|
mayday mayday

that's all the guitar folks

Plus I got that high bit that slipped under the radar =D

Hope you like; and again; I'm sorry >_<
            
Hard to play? Try these video lessons and learn fast. | Correct




comments powered by Disqus
↑ Back to top | Tablatures and chords are parodies/interpretations of the original songs. You may use it for private study, scholarship, research or language learning purposes only