» » »

Flobots, Mayday!!! Bass tabs (ver.1)

Artists:  A B C D E F G H I J K L M N O P Q R S T U V W X Y Z # 

Mayday!!! Bass tabs (ver.1)

Flobots Tabs
 Rating:
4/5 (4 votes)
Mayday!!! lessons Tabs too difficult? Try these video lessons and learn fast
                --------------------------------------------
	 "Mayday!!!" - Flobots
--------------------------------------------



Tuning: Standard EADG

     INTRO/CHORUS
G|---------------------------|
D|------------------------1--|
A|-----------1---------------|
E|-3-3-333-1----1-1-111-0----|

     VERSE
G|-------------------------|
D|---------0---------------|
A|------1----3--0-1--------|
E|-3--1---------------4\---|

G|--------------------------|
D|---------0----------------|
A|------1----3--0-1---1b-1b-|
E|-3--1---------------------|

     BRIDGE
G|--------------------|
D|--------------------|
A|------5-6-5-3-------|
E|--3-3---------6-5---|

     OUTRO
G|---------------------------------------|
D|-------------------------------1-1-1---|
A|-------------1-1-1---------------------|
E|-3-3-3-33-11-------1-1-1-11-00---------|
            
Submit corrections

comments powered by Disqus
↑ Back to top | Flobots Bass for Mayday!!!. Lyrics for acoustic guitar and electric guitar. Tablatures and chords are parodies/interpretations of the original songs. You may use it for private study, scholarship, research or language learning purposes only