» » »

Iraq Bass tabs (ver.1)

Artists:  A B C D E F G H I J K L M N O P Q R S T U V W X Y Z # 

Iraq Bass tabs (ver.1)

Flobots
Rating:
2/5 (1 vote)

Hard to play? Try these video lessons and learn fast.
                

MAIN RIFF (Verse and Chorus)
G|---------------------------------------|
D|---------------------------------------|
A|---7-6-5--7-6-5------------------------|
E|----------------0-0-0------------------|

Repeat However Many Times Necessary

PRE CHORUS
G|--------------------------------------|
D|--------------------------------------|
A|--------------------------------------|
E|----5-------5-3-------3--0------------|


OTHER RIFF (2:20)
G|--------------------------------------|
D|--------------------------------------|
A|---7-6-5--7-6-5-----------------------|
E|-----------------0---0-3-5------------|


OUTRO
G|--------------------------------------|
D|--------------------------------------|
A|----5(x18)----------------------------|
E|--------------0-0--0-0-0---0-0--0-0-0-|

There Change it where you dont think its right but i think it right 100%
            
Hard to play? Try these video lessons and learn fast. | Correct




comments powered by Disqus
↑ Back to top | Tablatures and chords are parodies/interpretations of the original songs. You may use it for private study, scholarship, research or language learning purposes only