» » »

Handlebars Tabs (ver.8)

Artists:  A B C D E F G H I J K L M N O P Q R S T U V W X Y Z # 

Handlebars Tabs (ver.8)

Flobots
Rating:
1/5 (4 votes)

Hard to play? Try these video lessons and learn fast.
                (Intro)
G7 G10 B10 G10. D7 D10 G9 D10. A8 D7 G7 G10. D10 G9 B8 G9. D8 G7 G10 B11 B8 B11 E10 B11 
B10 E8 B10. G9 B8 B10 D7

standard tuning

e/-----------------------------------------------------------------------|
B/------------10--------------------------------------8------------------|
G/---7---10--------10-------9----------------7---10-------9-------7---10-|
D/----------------------7-------10-------7--------------------8----------|
A/-----------------------------------8-----------------------------------|
E/-----------------------------------------------------------------------|

e/-------------------------------------------------------|
B/---11---8---11--------11---6---10-----------8---10-----|
G/----------------------------------------9--------------|
D/-----------------------------------------------------7-|
A/-------------------------------------------------------|
E/-----------------10-----------------8------------------|
            
Hard to play? Try these video lessons and learn fast. | Correct




comments powered by Disqus
↑ Back to top | Tablatures and chords are parodies/interpretations of the original songs. You may use it for private study, scholarship, research or language learning purposes only