» » »

Flobots, Handlebars Tabs (ver.7)

Artists:  A B C D E F G H I J K L M N O P Q R S T U V W X Y Z # 

Handlebars Tabs (ver.7)

Flobots Tabs
 Rating:
4/5 (6 votes)
Handlebars lessons Tabs too difficult? Try these video lessons and learn fast
                (Intro)
----------------------------------------------------------------------------
                             Handlebars - Flobots
----------------------------------------------------------------------------
*IN PROCESS*

Tuning:standard

Ok, people i was getting annoyed that no one has posted the tab for this song anywhere 
i decided to start one myself.
Okay! this only took me like 10 mins and its not much of the song cause im still in the 
of tabbing it, but im putting it up here so people can start one for themselves.
This may sound a little off too but hey at least i started working on it.


e|------5----------------------------------3-----------6---6--10--6----------|
B|----6---6---------5-------------6------5---5-------6---8-------------------|
G|--7------------5----5---------5------5-----------7-------------------------|
D|------------7--------------7-------------------8---------------------------|
A|-------------------------8-------------------------------------------------|
E|---------------------------------------------------------------------------|


*if you partially palm mute it then it sounds very close*


| /  slide up
| \  slide down
| h  hammer-on
| p  pull-off
| ~  vibrato
| +  harmonic
| x  Mute note
===============================================================================
            
Submit corrections

comments powered by Disqus
↑ Back to top | Flobots Tabs for Handlebars. Lyrics for acoustic guitar and electric guitar. Tablatures and chords are parodies/interpretations of the original songs. You may use it for private study, scholarship, research or language learning purposes only