» » »

Flobots, Handlebars Tabs (ver.5)

Artists:  A B C D E F G H I J K L M N O P Q R S T U V W X Y Z # 

Handlebars Tabs (ver.5)

Flobots Tabs
 Rating:
3.4/5 (5 votes)
Handlebars lessons Tabs too difficult? Try these video lessons and learn fast
                -------------------------------------------------------------------------------
                             HANDLEBARS - Flobots
-------------------------------------------------------------------------------

Tuning:standard
intro-outro
(played throughout the whole song, never stops)
e|---------------------------------------------------------------------------|
B|--------------------------------------------------------------------15-----|
G|--------14----------------------------------12-------------15-12-15----15--|
D|--12-15----15-------14----------12-15----14----14----12-15-----------------|
A|--------------12-15----15----13-------15----------13-----------------------|
E|--------------------------13-----------------------------------------------|

e|---------------------------------------------------------------------------|
B|-------13------------------------------------------------------------------|
G|----14----14----12-14------------------------------------------------------|
D|-15----------14------------------------------------------------------------|
A|----------------------12---------------------------------------------------|
E|---------------------------------------------------------------------------|
Chorus rhythm
"I can keep rhythm with no metronome..."
 Fourth time (chorus rhythm again) slide where possible.
e|---------------------------------------------------------------------------|
B|---------------------------------------------------------------------------|
G|---7-----------5---3-------------------------------------------------------|
D|---7---7---3---5---3---5---3---2-------------------------------------------|
A|---5---7---3---3---1---5---3---2-------------------------------------------|
E|-------5---1-----------3---1---0-------------------------------------------|
Trumpet solo
e|----5h7h8-7p5-12--13h15p1213-12-10-5310--------7/9-5--7/9-5-4-1------------|
B|----------------------------------------3-1--------------------------------|
G|---------------------------------------------------------------------------|
D|---------------------------------------------------------------------------|
A|---------------------------------------------------------------------------|
E|---------------------------------------------------------------------------|

e|--------1-3-5-8-10-17-15p13p12-10-8-5-10-9-7-8-/1313131313-(1315131210)x3--|
B|1-3---3--------------------------------------------------------------------|
G|---------------------------------------------------------------------------|
D|---------------------------------------------------------------------------|
A|---------------------------------------------------------------------------|
E|---------------------------------------------------------------------------|

e|---/1313131313-(1315131210)x2--131513-12-9~--------------------------------|
B|---------------------------------------------------------------------------|
G|---------------------------------------------------------------------------|
D|---------------------------------------------------------------------------|
A|---------------------------------------------------------------------------|
E|---------------------------------------------------------------------------|
played four times then intro as outro 

e|---------------------------------------------------------------------------|
B|---------------------------------------------------------------------------|
G|---7-----------5---3-------------------------------------------------------|
D|---7---7---3---5---3---5---3---2-------------------------------------------|
A|---5---7---3---3---1---5---3---2-------------------------------------------|
E|-------5---1-----------3---1---0-------------------------------------------|

| /  slide up
| h  hammer-on
| p  pull-off
| ~  vibrato
===============================================================================
This is my first tab, and I hope you like it! If not criticism is always accepted.
            
Submit corrections

comments powered by Disqus
↑ Back to top | Flobots Tabs for Handlebars. Lyrics for acoustic guitar and electric guitar. Tablatures and chords are parodies/interpretations of the original songs. You may use it for private study, scholarship, research or language learning purposes only